StatTrack
web space | free website | Business Web Hosting | Free Website Submission | shopping cart | php hosting
Rob Zombie-Superbeast guitar tab Superbeast
tuning: drop d (low to high: D A D G B e)
tabbed by daria - daria6666@hotmail.com

p.m.=palm mute

Intro:
|-----------------------------------------------------------------------
|-----------------------------------------------------------------------
|-----------------------------------------------------------------------
|--6-6-6-6-6-6-6-6-6-6-5-5-5-5-5-5-1-1-1-1-1-1-1-1-1-1-2-2-2-2-2-2-4-4--
|-----------------------------------------------------------------------
|-----------------------------------------------------------------------

|--------------------------------------------------------------------|
|--------------------------------------------------------------------|
|--------------------------------------------------------------------|
|--6-6-6-6-6-6-6-6-6-6-5-5-5-5-5-5-1-1-1-1-1-1-1-1-1-1-0-0-0-0-0-0---|
|--------------------------------------------------------------------|
|--------------------------------------------------------------------|

|-----------------------------------------------------------------------
|-----------------------------------------------------------------------
|-----------------------------------------------------------------------
|--6-6-6-6-6-6-6-6-6-6-5-5-5-5-5-5-1-1-1-1-1-1-1-1-1-1-2-2-2-2-2-2-4-4--
|--6-6-6-6-6-6-6-6-6-6-5-5-5-5-5-5-1-1-1-1-1-1-1-1-1-1-2-2-2-2-2-2-4-4--
|--6-6-6-6-6-6-6-6-6-6-5-5-5-5-5-5-1-1-1-1-1-1-1-1-1-1-2-2-2-2-2-2-4-4--

|----------------------------------------------------------------------|
|----------------------------------------------------------------------|
|----------------------------------------------------------------------|
|--6-6-6-6-6-6-6-6-6-6-5-5-5-5-5-5-1-1-1-1-1-1-1-1-1-1-2-2-2-2-2-2-4-4-|
|--6-6-6-6-6-6-6-6-6-6-5-5-5-5-5-5-1-1-1-1-1-1-1-1-1-1-2-2-2-2-2-2-4-4-|
|--6-6-6-6-6-6-6-6-6-6-5-5-5-5-5-5-1-1-1-1-1-1-1-1-1-1-2-2-2-2-2-2-4-4-|

|--------------------------------------------------------|
|--------------------------------------------------------|
|--------------------------------------------------------|
|--0-0-0-5--0-0-0-0-0-0-2--0-0-0-0-0-0-5--0-0-0-0-0-0-1--|
|--0-0-0-5--0-0-0-0-0-0-2--0-0-0-0-0-0-5--0-0-0-0-0-0-1--|
|--0-0-0-5--0-0-0-0-0-0-2--0-0-0-0-0-0-5--0-0-0-0-0-0-1--|
   p.m.-    p.m.-------    p.m.-------    p.m.-------

Verse:
|-----------------------------------|
|-----------------------------------|
|-----------------------------------|
|--0-0-0-0-0-0-0-0-0-0-0-0-0-0-0-0--|
|--0-0-0-0-0-0-0-0-0-0-0-0-0-0-0-0--|
|--0-0-0-0-0-0-0-0-0-0-0-0-0-0-0-0--|
p.m.------------------------------

Chorus:
|--------------------------------------------------------|
|--------------------------------------------------------|
|--------------------------------------------------------|
|--0-0-0-5--0-0-0-0-0-0-2--0-0-0-0-0-0-5--0-0-0-0-0-0-1--|
|--0-0-0-5--0-0-0-0-0-0-2--0-0-0-0-0-0-5--0-0-0-0-0-0-1--|
|--0-0-0-5--0-0-0-0-0-0-2--0-0-0-0-0-0-5--0-0-0-0-0-0-1--|
   p.m.-    p.m.-------    p.m.-------    p.m.-------

Preverse:
|-----------------------------------------------------------------------
|-----------------------------------------------------------------------
|-----------------------------------------------------------------------
|--6-6-6-6-6-6-6-6-6-6-5-5-5-5-5-5-1-1-1-1-1-1-1-1-1-1-2-2-2-2-2-2-4-4--
|--6-6-6-6-6-6-6-6-6-6-5-5-5-5-5-5-1-1-1-1-1-1-1-1-1-1-2-2-2-2-2-2-4-4--
|--6-6-6-6-6-6-6-6-6-6-5-5-5-5-5-5-1-1-1-1-1-1-1-1-1-1-2-2-2-2-2-2-4-4--

|----------------------------------------------------------------------|
|----------------------------------------------------------------------|
|----------------------------------------------------------------------|
|--6-6-6-6-6-6-6-6-6-6-5-5-5-5-5-5-1-1-1-1-1-1-1-1-1-1-2-2-2-2-2-2-4-4-|
|--6-6-6-6-6-6-6-6-6-6-5-5-5-5-5-5-1-1-1-1-1-1-1-1-1-1-2-2-2-2-2-2-4-4-|
|--6-6-6-6-6-6-6-6-6-6-5-5-5-5-5-5-1-1-1-1-1-1-1-1-1-1-2-2-2-2-2-2-4-4-|

Verse 2:
|-----------------------------------|
|-----------------------------------|
|-----------------------------------|
|--0-0-0-0-0-0-0-0-0-0-0-0-0-0-0-0--|
|--0-0-0-0-0-0-0-0-0-0-0-0-0-0-0-0--|
|--0-0-0-0-0-0-0-0-0-0-0-0-0-0-0-0--|
p.m.------------------------------

Chorus:
|--------------------------------------------------------|
|--------------------------------------------------------|
|--------------------------------------------------------|
|--0-0-0-5--0-0-0-0-0-0-2--0-0-0-0-0-0-5--0-0-0-0-0-0-1--|
|--0-0-0-5--0-0-0-0-0-0-2--0-0-0-0-0-0-5--0-0-0-0-0-0-1--|
|--0-0-0-5--0-0-0-0-0-0-2--0-0-0-0-0-0-5--0-0-0-0-0-0-1--|
   p.m.-    p.m.-------    p.m.-------    p.m.-------

|----------------------------------------|
|----------------------------------------|
|----------------------------------------|
|--7--9--12--11--9--7--9--12--11--12/14--|
|--5--7--10---9--7--5--7--10---9--10/12--|
|----------------------------------------|

|-----------------------------------------------------------------------
|-----------------------------------------------------------------------
|-----------------------------------------------------------------------
|--6-6-6-6-6-6-6-6-6-6-5-5-5-5-5-5-1-1-1-1-1-1-1-1-1-1-2-2-2-2-2-2-4-4--
|--6-6-6-6-6-6-6-6-6-6-5-5-5-5-5-5-1-1-1-1-1-1-1-1-1-1-2-2-2-2-2-2-4-4--
|--6-6-6-6-6-6-6-6-6-6-5-5-5-5-5-5-1-1-1-1-1-1-1-1-1-1-2-2-2-2-2-2-4-4--

|----------------------------------------------------------------------|
|----------------------------------------------------------------------|
|----------------------------------------------------------------------|
|--6-6-6-6-6-6-6-6-6-6-5-5-5-5-5-5-1-1-1-1-1-1-1-1-1-1-2-2-2-2-2-2-4-4-|
|--6-6-6-6-6-6-6-6-6-6-5-5-5-5-5-5-1-1-1-1-1-1-1-1-1-1-2-2-2-2-2-2-4-4-|
|--6-6-6-6-6-6-6-6-6-6-5-5-5-5-5-5-1-1-1-1-1-1-1-1-1-1-2-2-2-2-2-2-4-4-|

|-----------------------------------|
|-----------------------------------|
|-----------------------------------|
|--0-0-0-0-0-0-0-0-0-0-0-0-0-0-0-0--|
|--0-0-0-0-0-0-0-0-0-0-0-0-0-0-0-0--|
|--0-0-0-0-0-0-0-0-0-0-0-0-0-0-0-0--|
p.m.------------------------------

Chorus:
|--------------------------------------------------------|
|--------------------------------------------------------|
|--------------------------------------------------------|
|--0-0-0-5--0-0-0-0-0-0-2--0-0-0-0-0-0-5--0-0-0-0-0-0-1--|
|--0-0-0-5--0-0-0-0-0-0-2--0-0-0-0-0-0-5--0-0-0-0-0-0-1--|
|--0-0-0-5--0-0-0-0-0-0-2--0-0-0-0-0-0-5--0-0-0-0-0-0-1--|
   p.m.-    p.m.-------    p.m.-------    p.m.-------



Back