StatTrack
web space | free website | Web Hosting | Free Website Submission | shopping cart | php hosting
Eon Blue Apocalypse
tuning: drop d (low to high: D A D G B e)
tabbed by daria - daria6666@hotmail.com

Intro: |-------------|
|-------------|
|-------------|
|--0--or------| pick one of these notes a bunch.
|---------5---|
|-------------|

0:12 |-----------------------------------------------|
|-----------------------------------------------|
|-----------------------------------------------|
|----0-----0----------3------0-----0------------|
|--3-----3-----------------3-----3--------------|
|--------------3-5----------------------3-5--0--|

0:40
|-------------------------------------------------------------------
|-------------------------------------------------------------------
|--3\2-2~~---------------3\2-2~~------------------------------------
|-----------3/5--3/7--------------3/5--3/7--5~~----0-------0--------
|------------------------------------------------1---1-0-1---1-0-1--
|---------------------0---------------------------------------------

|--------------|
|--------------|
|-----------2--|
|-----------0--|
|-------0---0--|
|--1-0------0--|


Back