StatTrack
web space | free hosting | Business Hosting | Free Website Submission | shopping cart | php hosting
The X-Files Theme (P.M. Dawn Remix)
tuning: standard
tabbed by daria - daria6666@hotmail.com

|------------------------------------------------20-19-17-15-17-12~~~~~
|-----17-15-17-20-17~~~~~~---17-15-17-22-17~~~~~-----------------------
|--14---------------------14-------------------------------------------
|----------------------------------------------------------------------
|----------------------------------------------------------------------
|----------------------------------------------------------------------

|--20-19-17-15-19-\-12~~~~~-------------------------------------------
|-----------------------------17-15-17-20-17~~~~~--17-15-17-22-17~~~~~
|--------------------------14--------------------14-------------------
|---------------------------------------------------------------------
|---------------------------------------------------------------------
|---------------------------------------------------------------------

|----------------|
|--22-\-17~~~~~--|
|----------------|
|----------------|
|----------------|
|----------------|

1:30
|-----------------------------------------------------------------
|-----17~~~~~--15--12-13~~~~~--12------------------------17~~~~~--
|---------------------------------12-14-/-16-\-9~~~~~-------------
|--14------------------------------------------------14-----------
|-----------------------------------------------------------------
|-----------------------------------------------------------------

|-----------------------------------------------------------------------
|--15--12-13~~~~~--12----------------------------13~~~~~--12------------
|---------------------12-14~~~~~-\-9~~~~~-7~~~~~-------------12-14~~~~~-
|-----------------------------------------------------------------------
|-----------------------------------------------------------------------
|-----------------------------------------------------------------------

|-----------------------------------------------------------------------
|--12---------------------13~~~~~~--12------------12--------------------
|-----12-14~~~~~-\-9~~~~~~-------------12-14~~~~~----12-14~~~~~-\-9~~~~~
|-----------------------------------------------------------------------
|-----------------------------------------------------------------------
|-----------------------------------------------------------------------

|--------------------------------------------------------
|--------------------------------------------------------
|--7~~~~~~--8--11--14~~~~~--7--10~~~~~-/-16--14--16--14--
|--------------------------------------------------------
|--------------------------------------------------------
|--------------------------------------------------------

|------------------------------------------------20-19-17-15-17-12~~~~~
|-----17-15-17-20-17~~~~~~---17-15-17-22-17~~~~~-----------------------
|--14---------------------14-------------------------------------------
|----------------------------------------------------------------------
|----------------------------------------------------------------------
|----------------------------------------------------------------------

|--20-19-17-15-19-\-12~~~~~-------------------------------------------
|-----------------------------17-15-17-20-17~~~~~--17-15-17-20-17~~~~~
|--------------------------14--------------------14-------------------
|---------------------------------------------------------------------
|---------------------------------------------------------------------
|---------------------------------------------------------------------

|--20-19-17-15-17-12~~~~~--20-19-17-15-19-12~~~~~----------------------|
|-----------------------------------------------------17~~~~~----17~~~~|
|--------------------------------------------------14---------14-------|
|----------------------------------------------------------------------|
|----------------------------------------------------------------------|
|----------------------------------------------------------------------|


Back