StatTrack
web space | website hosting | Business WebSite Hosting | Free Website Submission | shopping cart | php hosting
X-Files theme (from The X-Files Movie soundtrack)
tuning: standard
tabbed by daria - daria6666@hotmail.com

guitar 1: (play guitars 1 and 2 together)
|-------------------------------
|-------------------------------
|-------9------9-----9-----9----
|-----9------9-----9-----9------
|--7------7------7-----7--------
|-------------------------------

|----------------------------------------------------------------------
|----------------------------------------------------------------------
|----------------------------------------------------------------------
|------------------------------9---------------------------------------
|----7-5-7-10-7----7-5-7-12-7----13-12-10-12-7----7-5-7-10-7----7-5-7--
|--5-------------5------------------------------5-------------5--------

|----------------------------------------------------------------|
|----------------------------------------------------------------|
|----------------------------------------------------------------|
|----------------------------------------------------------------|
|--10-7----7-5-7-12-7---------12-7------7-5-7-12-7---------------|
|--------5----------------------------5--------------------------|
guitar 2:
|-------------------3----3-------3----3-------------3--3--3--3---|
|-------------------3----3-------3----3-------------3--3--3--3---|
|-------------------5----5-------5----5-------------5--5--5--5---|
|-------------------5----5-------5----5-------------5--5--5--5---|
|-------------------3----3-------3----3-------------3--3--3--3---|
|-------------------3----3-------3----3-------------3--3--3--3---|

guitar 2: 1:28 (play guitars 1 and 2 together)
|--3----3--------3-------3------------3----3------3---|
|--3----3--------3-------3------------3----3------3---|
|--5----5--------5-------5------------5----5------5---|
|--5----5--------5-------5------------5----5------5---|
|--3----3--------3-------3------------3----3------3---|
|--3----3--------3-------3------------3----3------3---|
guitar 1:
|-----------------------------------------------------|
|-----------------------------------------------------|
|-----------------------------------------------------|
|-----------------------------------------------------|
|-------------12-7-------7-5-7-12-7------------12-7---|
|----------------------5------------------------------|

guitar 1:
|-----------------------------------------------------------------------
|-----------------------------------------------------------------------
|-------9------9-----9-----9------9-----9-------------------------------
|-----9------9-----9-----9------9-----9---------------------------------
|--7------7------7-----7-----7------7------------7-5-7-10-7---7-5-7-12-7
|----------------------------------------------5------------5-----------
guitar 2:
|----------------------------3-------------3----------------------------
|----------------------------3-------------3----------------------------
|----------------------------5-------------5----------------------------
|----------------------------5-------------5----------------------------
|----------------------------3-------------3----------------------------
|----------------------------3-------------3----------------------------

guitar 1:
|----------------------------------------------
|----------------------------------------------
|----------------------------------------------
|--9-------------------------------------------
|----13-12-10-12-7----7-5-7-10-7---7-5-7-12-7--
|-------------------5------------5-------------
guitar 2:
|-------------------------------------------3---3---------3--3--
|-------------------------------------------3---3---------3--3--
|-------------------------------------------5---5---------5--5--
|-------------------------------------------5---5---------5--5--
|-------------------------------------------3---3---------3--3--
|-------------------------------------------3---3---------3--3--
guitar 1:
|---------------------------------------------------------------
|---------------------------------------------------------------
|---------------------------------------------------------------
|---------------------------------------------------------------
|---------------------------------------------------12-7--------
|---------------------------------------------------------------

guitar 2: Outro:
|--3--3--3--3--3--3--3--3--3--|
|--3--3--3--3--3--3--3--3--3--|
|--5--5--5--5--5--5--5--5--5--|
|--5--5--5--5--5--5--5--5--5--|
|--3--3--3--3--3--3--3--3--3--|
|--3--3--3--3--3--3--3--3--3--|


Back