StatTrack
web space | free hosting | Business WebSite Hosting | Free Website Submission | shopping cart | php hosting
The Crow
tuning: standard
tabbed by daria - daria6666@hotmail.com

This little guitar solo is played when Eric Draven is playing quietly on the roof tops (right after they kill Gideon.)

|--------------------------------------0----------------------------
|--10h12--10--8-7--10-------10---10\3-----10h12--10--8-7--10--------
|---------------------9--11----9-----------------------------9--11--
|-------------------------------------------------------------------
|-------------------------------------------------------------------
|-------------------------------------------------------------------

|---------------|
|--8---10-------|
|----7-------9--|
|---------10----|
|---------------|
|---------------|


Back