StatTrack
web space | free website | Web Hosting | Free Website Submission | shopping cart | php hosting
Eye
tuning: standard
tabbed by daria - daria6666@hotmail.com

Main riff:
|---------------4----2-0---0-----0----|
|------0------0---0------4---2-0---0--|
|--1-1---1-3--------------------------|
|-------------------------------------|
|-------------------------------------|
|-------------------------------------|

Ending riff:
|--------------------------------|
|--------------------------------|
|--8--9--8--6--8--6--4--3--6--1--|
|--------------------------------|
|--------------------------------|
|--------------------------------|


Back