StatTrack
web space | website hosting | Web Hosting | Free Website Submission | shopping cart | php hosting
Living Dead Girl
tuning: drop d (low to high: D A D G B e)
tabbed by daria - daria6666@hotmail.com

Intro: guitar 1:
|------------------------------------|
|------------------------------------|
|------------------------------------|
|--4-4-4-2--4-4-4-2--4-4-4-2--3-3/9--|
|--4-4-4-2--4-4-4-2--4-4-4-2---------|
|--4-4-4-2--4-4-4-2--4-4-4-2---------|

guitar 2: 0:28:
|---------------------|
|--19-19-19-19-19-19--|
|---------------------|
|---------------------|
|---------------------|
|---------------------|

Verse:
|-----|
|-----|
|-----|
|--4--|
|--4--|
|--4--|

Chorus:
|------------------------------------|
|------------------------------------|
|------------------------------------|
|--4-4-4-2--4-4-4-2--4-4-4-2--3-3/9--|
|--4-4-4-2--4-4-4-2--4-4-4-2---------|
|--4-4-4-2--4-4-4-2--4-4-4-2---------|

guitar 2: 1:15:
|---------------------|
|--19-19-19-19-19-19--|
|---------------------|
|---------------------|
|---------------------|
|---------------------|

Verse:
|-----|
|-----|
|-----|
|--4--|
|--4--|
|--4--|

Chorus:
|------------------------------------|
|------------------------------------|
|------------------------------------|
|--4-4-4-2--4-4-4-2--4-4-4-2--3-3/9--|
|--4-4-4-2--4-4-4-2--4-4-4-2---------|
|--4-4-4-2--4-4-4-2--4-4-4-2---------|

guitar 2: 2:20:
|---------------------|
|--19-19-19-19-19-19--|
|---------------------|
|---------------------|
|---------------------|
|---------------------|

Verse:
|-------------|
|-------------|
|------15/17--|
|--4----------|
|--4----------|
|--4----------|
Chorus:
|------------------------------------|
|------------------------------------|
|------------------------------------|
|--4-4-4-2--4-4-4-2--4-4-4-2--3-3/9--|
|--4-4-4-2--4-4-4-2--4-4-4-2---------|
|--4-4-4-2--4-4-4-2--4-4-4-2---------|


Back