StatTrack
web space | website hosting | Business Web Hosting | Free Website Submission | shopping cart | php hosting
Slow
tuning: drop d and down one half step (low to high: Db Ab Db Gb Bb eb)
tabbed by daria - daria6666@hotmail.com

b=bend
h=hammer on
p=pull off
p.m.=palm mute

Intro: guitar 1:
|----------------------------------------------------|
|--16-16-16--16b(1/4)-16b(1/4)-16b(1/4)--16b(17)p14--|
|----------------------------------------------------|
|----------------------------------------------------|
|----------------------------------------------------|
|----------------------------------------------------|

guitar 2:
|---------------------|
|---------------------|
|---------------------|
|--1-1--2h4-1--4p2-4--|
|--1-1--2h4-1--4p2-4--|
|--1-1--2h4-1--4p2-4--|

Verse: guitar 1:
|----------------------------------------------------|
|--16-16-16--16b(1/4)-16b(1/4)-16b(1/4)--16b(17)p14--|
|----------------------------------------------------|
|----------------------------------------------------|
|----------------------------------------------------|
|----------------------------------------------------|
   p.m.--------------------------------------------

1:00
guitar 1:
|----------------------------------------------------|
|--16-16-16--16b(1/4)-16b(1/4)-16b(1/4)--16b(17)p14--|
|----------------------------------------------------|
|----------------------------------------------------|
|----------------------------------------------------|
|----------------------------------------------------|

guitar 2:
|---------------------|
|---------------------|
|---------------------|
|--1-1--2h4-1--4p2-4--|
|--1-1--2h4-1--4p2-4--|
|--1-1--2h4-1--4p2-4--|

Verse: guitar 1:
|----------------------------------------------------|
|--16-16-16--16b(1/4)-16b(1/4)-16b(1/4)--16b(17)p14--|
|----------------------------------------------------|
|----------------------------------------------------|
|----------------------------------------------------|
|----------------------------------------------------|
   p.m.--------------------------------------------

Prechorus:
|----------------------|
|----------------------|
|--8-8-8-8-8-8--11-11--|
|--8-8-8-8-8-8--11-11--|
|--6-6-6-6-6-6---9--9--|
|----------------------|

Chorus:
|-------------------------------------------------------------------
|-------------------------------------------------------------------
|--8-8-8-8-8-8-8-8-6-6-6-6-6-6-6-6-4-4-4-4-4-4-4-4-4-4-4-4-4-4-4-4--
|--8-8-8-8-8-8-8-8-6-6-6-6-6-6-6-6-4-4-4-4-4-4-4-4-4-4-4-4-4-4-4-4--
|--6-6-6-6-6-6-6-6-4-4-4-4-4-4-4-4-2-2-2-2-2-2-2-2-2-2-2-2-2-2-2-2--
|-------------------------------------------------------------------

|----------------------------------------------------------------|
|----------------------------------------------------------------|
|--8-8-8-8-8-8-8-8-6-6-6-6-6-6-6-6-4-4-4-4-4-4-4-4-X-X-X-X-X-X---|
|--8-8-8-8-8-8-8-8-6-6-6-6-6-6-6-6-4-4-4-4-4-4-4-4-X-X-X-X-X-X---|
|--6-6-6-6-6-6-6-6-4-4-4-4-4-4-4-4-2-2-2-2-2-2-2-2-X-X-X-X-X-X---|
|----------------------------------------------------------------|

guitar 1:
|----------------------------------------------------|
|--16-16-16--16b(1/4)-16b(1/4)-16b(1/4)--16b(17)p14--|
|----------------------------------------------------|
|----------------------------------------------------|
|----------------------------------------------------|
|----------------------------------------------------|

guitar 2:
|---------------------|
|---------------------|
|---------------------|
|--1-1--2h4-1--4p2-4--|
|--1-1--2h4-1--4p2-4--|
|--1-1--2h4-1--4p2-4--|

Verse: guitar 1:
|----------------------------------------------------|
|--16-16-16--16b(1/4)-16b(1/4)-16b(1/4)--16b(17)p14--|
|----------------------------------------------------|
|----------------------------------------------------|
|----------------------------------------------------|
|----------------------------------------------------|
   p.m.--------------------------------------------

2:27
|-------------------|
|-------------------|
|-------------------|
|--1-1-1-4-4-4-2-2--|
|--1-1-1-4-4-4-2-2--|
|--1-1-1-4-4-4-2-2--|

Prechorus: 2:43
|----------------------|
|----------------------|
|--8-8-8-8-8-8--11-11--|
|--8-8-8-8-8-8--11-11--|
|--6-6-6-6-6-6---9--9--|
|----------------------|

Chorus:
|-------------------------------------------------------------------
|-------------------------------------------------------------------
|--8-8-8-8-8-8-8-8-6-6-6-6-6-6-6-6-4-4-4-4-4-4-4-4-4-4-4-4-4-4-4-4--
|--8-8-8-8-8-8-8-8-6-6-6-6-6-6-6-6-4-4-4-4-4-4-4-4-4-4-4-4-4-4-4-4--
|--6-6-6-6-6-6-6-6-4-4-4-4-4-4-4-4-2-2-2-2-2-2-2-2-2-2-2-2-2-2-2-2--
|-------------------------------------------------------------------

|----------------------------------------------------------------|
|----------------------------------------------------------------|
|--8-8-8-8-8-8-8-8-6-6-6-6-6-6-6-6-4-4-4-4-4-4-4-4-X-X-X-X-X-X---|
|--8-8-8-8-8-8-8-8-6-6-6-6-6-6-6-6-4-4-4-4-4-4-4-4-X-X-X-X-X-X---|
|--6-6-6-6-6-6-6-6-4-4-4-4-4-4-4-4-2-2-2-2-2-2-2-2-X-X-X-X-X-X---|
|----------------------------------------------------------------|

3:23:
|---------------------|
|---------------------|
|---------------------|
|--1-1--2h4-1--4p2-4--|
|--1-1--2h4-1--4p2-4--|
|--1-1--2h4-1--4p2-4--|

3:39
|-------------------|
|-------------------|
|-------------------|
|--1-1-1-4-4-4-2-2--|
|--1-1-1-4-4-4-2-2--|
|--1-1-1-4-4-4-2-2--|


Back