web space | free hosting | Web Hosting | Free Website Submission | shopping cart | php hosting
Sturm & Drang
tuning: standard
tabbed by daria - daria6666@hotmail.com

Intro/Verses/Outro:
|--------------------------------------------|
|--------------------------------------------|
|--8--8-8-8-8--11--8--8-8-8-8--11--8--8-7-6--|
|--8--8-8-8-8--11--8--8-8-8-8--11--8--8-7-6--|
|--6--6-6-6-6---9--6--6-6-6-6---9--6--6-5-4--|
|--------------------------------------------|

Solo:
|-------------------------------------------------------------
|----------------9----------------------------9--11--9--------
|--8--8-8--10-11---11-10--8--6--10--10-10--11----------11--10-
|-------------------------------------------------------------
|-------------------------------------------------------------
|-------------------------------------------------------------

|----------------------------------------------------------------------|
|--12--12-12--11--9-----9-11-----------9----11-9-12-11-14-12-16-14-16--|
|--------------------11------8---11-10---11----------------------------|
|----------------------------------------------------------------------|
|----------------------------------------------------------------------|
|----------------------------------------------------------------------|



Back