web space | free hosting | Business Web Hosting | Free Website Submission | shopping cart | php hosting
Risen
tuning: drop d (low to high: D A D G B e)
tabbed by daria - daria6666@hotmail.com

p.m.=palm mute
h=hammer on

Intro:
|---------------------------------------|
|---------------------------------------|
|---------------------------------------|
|--------------------------------11-12--|
|--2--5-4--7-5--10-9-7--12-10-9---------|
|---------------------------------------|

|---------------------------------------|
|---------------------------------------|
|---------------------------------------| x4
|--7h9---7h9---7h9---7h9-7h9--7h9--7h9--|
|--7h9---7h9---7h9---7h9-7h9--7h9--7h9--|
|--7h9---7h9---7h9---7h9-7h9--7h9--7h9--|

1:05
|-------------------------------------------------------------------|
|-------------------------------------------------------------------|
|-------------------------------------------------------------------|
|--7h9-9-9-9-9-9-9--7h9-9-9-9-9-9-9--7h9-9-9-9-9-9-7h9-9-9-9-9-9----|
|--7h9-9-9-9-9-9-9--7h9-9-9-9-9-9-9--7h9-9-9-9-9-9-7h9-9-9-9-9-9----|
|--7h9-9-9-9-9-9-9--7h9-9-9-9-9-9-9--7h9-9-9-9-9-9-7h9-9-9-9-9-9----|
p.m.---------------------------------------------------------

|------------------------------------------|
|------------------------------------------|
|------------------------------------------| x2
|------------------------------------------|
|------------------------------------------|
|--0-1--9-9--4-4--9-7--0-1--9-9--4-4--7/5--|

1:53
|-------------------------------------------------------------------|
|-------------------------------------------------------------------|
|-------------------------------------------------------------------|
|--7h9-9-9-9-9-9-9--7h9-9-9-9-9-9-9--7h9-9-9-9-9-9-7h9-9-9-9-9-9----|
|--7h9-9-9-9-9-9-9--7h9-9-9-9-9-9-9--7h9-9-9-9-9-9-7h9-9-9-9-9-9----|
|--7h9-9-9-9-9-9-9--7h9-9-9-9-9-9-9--7h9-9-9-9-9-9-7h9-9-9-9-9-9----|
   p.m.---------------------------------------------------------

Chorus:
|---------------------------------------|
|---------------------------------------|
|---------------------------------------| x4
|--7h9---7h9---7h9---7h9-7h9--7h9--7h9--|
|--7h9---7h9---7h9---7h9-7h9--7h9--7h9--|
|--7h9---7h9---7h9---7h9-7h9--7h9--7h9--|

3:07 Chorus again
|---------------------------------------|
|---------------------------------------|
|---------------------------------------| x4
|--7h9---7h9---7h9---7h9-7h9--7h9--7h9--|
|--7h9---7h9---7h9---7h9-7h9--7h9--7h9--|
|--7h9---7h9---7h9---7h9-7h9--7h9--7h9--|

3:53
|-------------------------------------------------------------------|
|-------------------------------------------------------------------|
|-------------------------------------------------------------------|
|--7h9-9-9-9-9-9-9--7h9-9-9-9-9-9-9--7h9-9-9-9-9-9-7h9-9-9-9-9-9----|
|--7h9-9-9-9-9-9-9--7h9-9-9-9-9-9-9--7h9-9-9-9-9-9-7h9-9-9-9-9-9----|
|--7h9-9-9-9-9-9-9--7h9-9-9-9-9-9-9--7h9-9-9-9-9-9-7h9-9-9-9-9-9----|
   p.m.---------------------------------------------------------

4:08
|---------------------------------------|
|---------------------------------------|
|---------------------------------------|
|--------------------------------11-12--|
|--2--5-4--7-5--10-9-7--12-10-9---------|
|---------------------------------------|

4:37 Chorus:
|---------------------------------------|
|---------------------------------------|
|---------------------------------------| x4
|--7h9---7h9---7h9---7h9-7h9--7h9--7h9--|
|--7h9---7h9---7h9---7h9-7h9--7h9--7h9--|
|--7h9---7h9---7h9---7h9-7h9--7h9--7h9--|

4:53
|------------------------|
|------------------------|
|------------------------|
|--9---9---9---9----9----|
|--9---9---9---9----9----|
|--9---9---9---9----9----|

5:08
|-------------------------------------------------------------------|
|-------------------------------------------------------------------|
|-------------------------------------------------------------------|
|--7h9-9-9-9-9-9-9--7h9-9-9-9-9-9-9--7h9-9-9-9-9-9-7h9-9-9-9-9-9----|
|--7h9-9-9-9-9-9-9--7h9-9-9-9-9-9-9--7h9-9-9-9-9-9-7h9-9-9-9-9-9----|
|--7h9-9-9-9-9-9-9--7h9-9-9-9-9-9-9--7h9-9-9-9-9-9-7h9-9-9-9-9-9----|
   p.m.---------------------------------------------------------

|----------------------------------------------------------------
|----------------------------------------------------------------
|----------------------------------------------------------------
|--------------------------------11-12-11----11-14-12-16-17-12---
|--2--5-4--7-5--10-9-7--12-10-9-----------12---------------------
|----------------------------------------------------------------

|-----------------------------|
|--------12--14-15-17-14-12---|
|--14-------------------------|
|-----16----------------------|
|-----------------------------|
|-----------------------------|

Outro:
|-------------------------------------------------------------------|
|-------------------------------------------------------------------|
|-------------------------------------------------------------------|
|--7h9-9-9-9-9-9-9--7h9-9-9-9-9-9-9--7h9-9-9-9-9-9-7h9-9-9-9-9-9----|
|--7h9-9-9-9-9-9-9--7h9-9-9-9-9-9-9--7h9-9-9-9-9-9-7h9-9-9-9-9-9----|
|--7h9-9-9-9-9-9-9--7h9-9-9-9-9-9-9--7h9-9-9-9-9-9-7h9-9-9-9-9-9----|
   p.m.---------------------------------------------------------



Back