web space | free hosting | Web Hosting | Free Website Submission | shopping cart | php hosting
Juke-Joint Jezebel
tuning: drop d (low to high: D A D G B e)
tabbed by thebottom - daria6666@hotmail.com

h=hammer on
p=pull off
p.m. & * = palm mute
/ & \ = slide up and down

synth arr. bass:
|-------------------|
|-------------------|
|-------------------|
|--2-2-2-2-2-2-2-2--|

guitar: 0:29
|-----------------|
|-----------------|
|-----------------|
|--2--5-4-6--6/7--|
|--2--5-4-6--6/7--|
|--2--5-4-6--6/7--|

Prechorus:
|------------------|
|------------------|
|--9------10----7--|
|--9------10----7--|
|--7-------8----5--|
|------------------|

Chorus:
|------------------------------------------------------
|------------------------------------------------------
|--9----------7\6-7\6--7--------------------9----------
|--9----------7\6-7\6--6--------------------9----------
|--7----------5\4-5\4--5---------5h7-5/8----7----------
|----0-0-0-0-------------0-0-0-0--------------0-0-0-0--
     p.m.---             p.m.---              p.m.---

|-------------------------------|
|-------------------------------|
|--7\6-7\6--7-------------------|
|--7\6-7\6--6----------6p4------|
|--5\4-5\4--5--------------5h7--|
|--------------0-0-0-0----------|
               p.m.---

|-----------------|
|-----------------|
|-----------------|
|--2--5-4-6--6/7--|
|--2--5-4-6--6/7--|
|--2--5-4-6--6/7--|

Prechorus:
|------------------|
|------------------|
|--9------10----7--|
|--9------10----7--|
|--7-------8----5--|
|------------------|

Chorus:
|------------------------------------------------------
|------------------------------------------------------
|--9----------7\6-7\6--7--------------------9----------
|--9----------7\6-7\6--6--------------------9----------
|--7----------5\4-5\4--5---------5h7-5/8----7----------
|----0-0-0-0-------------0-0-0-0--------------0-0-0-0--
     p.m.---             p.m.---              p.m.---

|-------------------------------|
|-------------------------------|
|--7\6-7\6--7-------------------|
|--7\6-7\6--6----------6p4------|
|--5\4-5\4--5--------------5h7--|
|--------------0-0-0-0----------|
               p.m.---

2:55
|----------------------------------------------|
|----------------------------------------------|
|----------------------------------------------|
|--2-2---5/9-----5/8----------5/7--------5\4---|
|--2-2---5/9-----5/8----------5/7--------5\4---|
|--2-2---5/9--2--5/8--2-2-2---5/7--2-2---5\4---|
   * *        *       * * *        * *

Verse:
(I think it's just this palm muted and repeated a bunch of times)
|-----------------------|
|-----------------------|
|-----------------------|
|--2-2-2-2-2-2-2-2-2-2--|
|--2-2-2-2-2-2-2-2-2-2--|
|--2-2-2-2-2-2-2-2-2-2--|
   p.m.---------------

Prechorus:
|------------------|
|------------------|
|--9------10----7--|
|--9------10----7--|
|--7-------8----5--|
|------------------|

Chorus:
|------------------------------------------------------
|------------------------------------------------------
|--9----------7\6-7\6--7--------------------9----------
|--9----------7\6-7\6--6--------------------9----------
|--7----------5\4-5\4--5---------5h7-5/8----7----------
|----0-0-0-0-------------0-0-0-0--------------0-0-0-0--
     p.m.---             p.m.---              p.m.---

|-------------------------------|
|-------------------------------|
|--7\6-7\6--7-------------------|
|--7\6-7\6--6----------6p4------|
|--5\4-5\4--5--------------5h7--|
|--------------0-0-0-0----------|
               p.m.---

4:56 |----------------------------------------------|
|----------------------------------------------|
|----------------------------------------------|
|--2-2---5/9-----5/8----------5/7--------5\4---|
|--2-2---5/9-----5/8----------5/7--------5\4---|
|--2-2---5/9--2--5/8--2-2-2---5/7--2-2---5\4---|
   * *        *       * * *        * *

Chorus:
|------------------------------------------------------
|------------------------------------------------------
|--9----------7\6-7\6--7--------------------9----------
|--9----------7\6-7\6--6--------------------9----------
|--7----------5\4-5\4--5---------5h7-5/8----7----------
|----0-0-0-0-------------0-0-0-0--------------0-0-0-0--
     p.m.---             p.m.---              p.m.---

|-------------------------------|
|-------------------------------|
|--7\6-7\6--7-------------------|
|--7\6-7\6--6----------6p4------|
|--5\4-5\4--5--------------5h7--|
|--------------0-0-0-0----------|
               p.m.---

Outro:
|----------------------------------|
|----------------------------------|
|----------------------------------|
|-----5/7-----5/8--------2--5-4-7--| x2
|-----5/7-----5/8--------2--5-4-7--|
|--2--5/7--2--5/8--2-4---2--5-4-7--|
   *       *       * *

then
|--------|
|--------|
|--------|
|---8\7--|
|---8\7--|
|---8\7--|



Back