web space | website hosting | Business Hosting | Free Website Submission | shopping cart | php hosting
Just Got Wicked (acoustic)
tuning: (low to high: C F Bb Eb G c)
tabbed by thebottom - daria6666@hotmail.com

Intro: x4
|-----------------------------|
|--------0-0-0-0-0-0-0-0-0----|
|--------4-4-4-4\3-3-3\2-2p0--|
|-2-2------------------------|
|-2-2------------------------|
|--0-0------------------------|

Verse: x7
|---------------------------|
|---------------------------|
|---------------------------|
|--2-2--4-4-/-5--5-5-/-7-7--|
|--2-2--4-4-/-5--5-5-/-7-7--|
|--0-0--2-2-/-3--3-3-/-5-5--|

|--------------------------|
|--------------------------|
|--------------------------|
|--2-2--X--X-X--X--X-X--X--|
|--2-2--X--X-X--X--X-X--X--|
|--0-0--X--X-X--X--X-X--X--|

Chorus:
|------------0---0---0---0-------------0---0---0---0--|
|------------X---X---X---X-------------X---X---X---X--|
|-----7--/--14--14--14--14------7--/--14--14--14--14--|
|--9--X--/---X---X---X---X---5--X--/---X---X---X---X--|
|--9--5--/--12--12--12--12---5--5--/--12--12--12--12--|
|--7-------------------------3------------------------|

Intro played again: x4
|-----------------------------|
|--------0-0-0-0-0-0-0-0-0----|
|--------4-4-4-4\3-3-3\2-2p0--|
|-2-2------------------------|
|-2-2------------------------|
|--0-0------------------------|

Verse:
|---------------------------|
|---------------------------|
|---------------------------|
|--2-2--4-4-/-5--5-5-/-7-7--|
|--2-2--4-4-/-5--5-5-/-7-7--|
|--0-0--2-2-/-3--3-3-/-5-5--|

|-------------------------------------------------------x-x-x-x-x-x----------------x--|
|-------------------------------------------------------x-x-x-x-x-x----------------x--|
|-------------------------------------------------------x-x-x-x-x-x----------------x--|
|--2-2----------2--2--------2-2-------2--2-------2-2----x-x-x-x-x-x---2--2----2----x--|
|--2-2----------2--2--------2-2-------2--2-------2-2----x-x-x-x-x-x---2--2----2----x--|
|--0-0----------0--0--------0-0-------0--0-------0-0----x-x-x-x-x-x---0--0----0----x--|

Chorus:
|------------0---0---0---0-------------0---0---0---0--|
|------------X---X---X---X-------------X---X---X---X--|
|-----7--/--14--14--14--14------7--/--14--14--14--14--|
|--9--X--/---X---X---X---X---5--X--/---X---X---X---X--|
|--9--5--/--12--12--12--12---5--5--/--12--12--12--12--|
|--7-------------------------3------------------------|

|-----------------------------|
|-----------------------------|
|-----------------------------|
|--2-2--7-7-/-8--8-8-/-10-10--|
|--2-2--7-7-/-8--8-8-/-10-10--|
|--0-0--5-5-/-6--6-6-/--8--8--|

Chorus:
|------------0---0---0---0-------------0---0---0---0--|
|------------X---X---X---X-------------X---X---X---X--|
|-----7--/--14--14--14--14------7--/--14--14--14--14--|
|--9--X--/---X---X---X---X---5--X--/---X---X---X---X--|
|--9--5--/--12--12--12--12---5--5--/--12--12--12--12--|
|--7-------------------------3------------------------|

*I'm not real sure about this part. This is kinda what it sounds like to me*
|-----------------------|
|-----------------------|
|-----------------------|
|--2-2--/--7-7-7-7-7-7--|
|--2-2--/--7-7-7-7-7-7--|
|--0-0--/--5-5-5-5-5-5--|

Ending: (and is also played throughout the song)
|------5--5-------5-----7p5---------5--5-------5-------7p5------5--|
|----3------3---3-----3-----3-----3------3---3-------3-----3---3---|
|--4----------0-----4-----------4----------0------4-----------4----|
|------------------------------------------------------------------|
|------------------------------------------------------------------|
|------------------------------------------------------------------|



Back