web space | free website | Business Hosting Services | Free Website Submission | shopping cart | php hosting
Right Through You
drop d tuning : (low to high: D A D G B e)
tabbed by thebottom - daria6666@hotmail.com

Intro: guitar 1:
|--------------------|
|--------------------|
|----5----5-----5----|
|--5---5------5---5--|
|--------------------|
|--------------------|

guitar 2:
|--------------------------------|
|--------------------------------|
|--12-13-12---------8-10----7-9--|
|------------13-10-------10------|
|--------------------------------|
|--------------------------------|

Verse: guitar 1:
|--------------------|
|--------------------|
|----5----5-----5----|
|--5---5------5---5--|
|--------------------|
|--------------------|

Prechorus:
|--------------|
|--------------|
|--------------|
|--5--3--1--0--|
|--5--3--1--0--|
|--5--3--1--0--|

Chorus:
|----------------------------------------------------------------------
|----------------------------------------------------------------------
|-------------------------------------------------------------3-3-3-3--
|--10-10-10--6-6-6-6-6--10-10-10--6-6-6-6-6--3-3-3-3-3-3-3-3--3-3-3-3--
|--10-10-10--6-6-6-6-6--10-10-10--6-6-6-6-6--3-3-3-3-3-3-3-3--1-1-1-1--
|--10-10-10--6-6-6-6-6--10-10-10--6-6-6-6-6--3-3-3-3-3-3-3-3-----------

|----------------------------------------------------------------------|
|----------------------------------------------------------------------|
|--4-4-4-4-------------------------------------------------------------|
|--4-4-4-4--10-10-10--6-6-6-6-6--10-10-10--6-6-6-6-6--0--0--5--3--1/0--|
|--2-2-2-2--10-10-10--6-6-6-6-6--10-10-10--6-6-6-6-6--0--0--5--3--1/0--|
|-----------10-10-10--6-6-6-6-6--10-10-10--6-6-6-6-6--0--0--5--3--1/0--|

Verse: guitar 1:
|--------------------|
|--------------------|
|----5----5-----5----|
|--5---5------5---5--|
|--------------------|
|--------------------|

Prechorus:
|--------------|
|--------------|
|--------------|
|--5--3--1--0--|
|--5--3--1--0--|
|--5--3--1--0--|

Chorus:
|----------------------------------------------------------------------
|----------------------------------------------------------------------
|-------------------------------------------------------------3-3-3-3--
|--10-10-10--6-6-6-6-6--10-10-10--6-6-6-6-6--3-3-3-3-3-3-3-3--3-3-3-3--
|--10-10-10--6-6-6-6-6--10-10-10--6-6-6-6-6--3-3-3-3-3-3-3-3--1-1-1-1--
|--10-10-10--6-6-6-6-6--10-10-10--6-6-6-6-6--3-3-3-3-3-3-3-3-----------

|----------------------------------------------------------------------
|----------------------------------------------------------------------
|--4-4-4-4-------------------------------------------------------------
|--4-4-4-4--10-10-10--6-6-6-6-6--10-10-10--6-6-6-6-6--0--0--5--3--1/0--
|--2-2-2-2--10-10-10--6-6-6-6-6--10-10-10--6-6-6-6-6--0--0--5--3--1/0--
|-----------10-10-10--6-6-6-6-6--10-10-10--6-6-6-6-6--0--0--5--3--1/0--

|--------------------------------------------------|
|--------------------------------------------------|
|--------------------------------------------------|
|--10-10-10--6-6-6-6-6--10-10-10--6-6-6-6-6--0--0--|
|--10-10-10--6-6-6-6-6--10-10-10--6-6-6-6-6--0--0--|
|--10-10-10--6-6-6-6-6--10-10-10--6-6-6-6-6--0--0--|

Bridge:
|--------------|
|--------------|
|--------------|
|--5--3--1--0--|
|--5--3--1--0--|
|--5--3--1--0--|

Verse guitar again:
|--------------------|
|--------------------|
|----5----5-----5----|
|--5---5------5---5--|
|--------------------|
|--------------------|

Chorus:
|----------------------------------------------------------------------
|----------------------------------------------------------------------
|-------------------------------------------------------------3-3-3-3--
|--10-10-10--6-6-6-6-6--10-10-10--6-6-6-6-6--3-3-3-3-3-3-3-3--3-3-3-3--
|--10-10-10--6-6-6-6-6--10-10-10--6-6-6-6-6--3-3-3-3-3-3-3-3--1-1-1-1--
|--10-10-10--6-6-6-6-6--10-10-10--6-6-6-6-6--3-3-3-3-3-3-3-3-----------

|----------------------------------------------------------------------|
|----------------------------------------------------------------------|
|-4-4-4-4--------------------------------------------------------------|
|-4-4-4-4--10-10-10--6-6-6-6-6--10-10-10--6-6-6-6-6--0--0--5--3--1/0-0-|
|-2-2-2-2--10-10-10--6-6-6-6-6--10-10-10--6-6-6-6-6--0--0--5--3--1/0-0-|
|----------10-10-10--6-6-6-6-6--10-10-10--6-6-6-6-6--0--0--5--3--1/0-0-|



Back