StatTrack
web space | website hosting | Business Hosting Services | Free Website Submission | shopping cart | php hosting
Rob Zombie-Meet the creeper guitar tab Meet The Creeper
tuning: drop d (low to high: D A D G B e)
tabbed by daria - daria6666@hotmail.com

p.m.=palm mute
b=bend
h=hammer on
p=pull off

Intro:
|--------------------------|
|--------------------------|
|--------------------------|
|--3-3-3-3--3--3-3--2-1----|
|--3-3-3-3--3--3-3--2-1----|
|--3-3-3-3--3--3-3--2-1----|
   p.m.---     p.m.

Verse:
|-----------|
|-----------|
|-----------|
|--3-3-3-3--|
|--3-3-3-3--|
|--3-3-3-3--|
p.m.------

Prechorus:
|------------------|
|------------------|
|------------------|
|--0-0-0-0-0-0--5--|
|--0-0-0-0-0-0--5--|
|--0-0-0-0-0-0--5--|
   p.m.-------

Chorus:
|--------------------------|
|--------------------------|
|--------------------------|
|--3-3-3-3--3--3-3--2-1----|
|--3-3-3-3--3--3-3--2-1----|
|--3-3-3-3--3--3-3--2-1----|
   p.m.---     p.m.

Preverse: guitar 2:
|-----------------------------------------------------|
|-----------------------15b(1/4)----------------------|
|-----------------------------------------------------| x2
|--11h12p11--11h12p11-------------11h12p11--11h12p11--|
|-----------------------------------------------------|
|-----------------------------------------------------|

guitar 1:
|-----------|
|-----------|
|-----------|
|--3-3-3-3--|
|--3-3-3-3--|
|--3-3-3-3--|
p.m.------

Verse 2: |-----------|
|-----------|
|-----------|
|--3-3-3-3--|
|--3-3-3-3--|
|--3-3-3-3--|
p.m.------

Prechorus:
|------------------|
|------------------|
|------------------|
|--0-0-0-0-0-0--5--|
|--0-0-0-0-0-0--5--|
|--0-0-0-0-0-0--5--|
   p.m.-------

Chorus:
|--------------------------|
|--------------------------|
|--------------------------|
|--3-3-3-3--3--3-3--2-1----|
|--3-3-3-3--3--3-3--2-1----|
|--3-3-3-3--3--3-3--2-1----|
   p.m.---    p.m.

1:57 guitar 2:
|------------------------------------------------
|------------------------------------------------
|--9h10p9--9h10p9--9h10---9h10p9--9h10p9--9h10---
|------------------------------------------------
|------------------------------------------------
|------------------------------------------------

|----------------------------------------------------|
|------------------------------------------15b(1/4)--|
|--9h10p9--9h10p9--9h10---9h10p9--9h10p9-------------|
|----------------------------------------------------|
|----------------------------------------------------|
|----------------------------------------------------|

Verse 3:
|---------------------|
|---------------------|
|---------------------|
|--3-3-3-3-3-3-3-3-3--|
|--3-3-3-3-3-3-3-3-3--|
|--3-3-3-3-3-3-3-3-3--|
p.m.----------------

Prechorus:
|------------------|
|------------------|
|------------------|
|--0-0-0-0-0-0--5--|
|--0-0-0-0-0-0--5--|
|--0-0-0-0-0-0--5--|
   p.m.-------

Chorus:
|--------------------------|
|--------------------------|
|--------------------------|
|--3-3-3-3--3--3-3--2-1----|
|--3-3-3-3--3--3-3--2-1----|
|--3-3-3-3--3--3-3--2-1----|
   p.m.---     p.m.



Back