StatTrack
web space | free hosting | Business Hosting | Free Website Submission | shopping cart | php hosting
I Wish
tuning: standard
tabbed by daria - daria6666@hotmail.com

Intro: acoustic guitar 1:
|--X-X-X-X--X-X-X-X--X-X-X-X--X-X-X--|
|--X-X-X-X--X-X-X-X--X-X-X-X--X-X-X--|
|--5-5-X-X--3-3-X-X--5-5-X-X--8-8-7--|
|--5-5-X-X--3-3-X-X--5-5-X-X--8-8-7--|
|--3-3-X-X--1-1-X-X--3-3-X-X--6-6-5--|
|--3-3-X-X--1-1-X-X--3-3-X-X--6-6-5--|

Eletric guitar 2:
|--X-X-X-X--X-X-X-X--X-X-X-X--X-X-X--|
|--X-X-X-X--X-X-X-X--X-X-X-X--X-X-X--|
|--5-5-X-X--3-3-X-X--5-5-X-X--8-8-7--|
|--5-5-X-X--3-3-X-X--5-5-X-X--8-8-7--|
|--3-3-X-X--1-1-X-X--3-3-X-X--6-6-5--|
|--3-3-X-X--1-1-X-X--3-3-X-X--6-6-5--|

Verse:
|------------------------|--3--|
|-----3----------3-4-----|--3--|
|--5----5-----5-------5--|--5--|
|---------5--------------|--5--|
|------------------------|-----|
|------------------------|-----|

Chorus:
acoustic guitar 1:
|--X-X-X-X--X-X-X-X--X-X-X-X--X-X-X--|
|--X-X-X-X--X-X-X-X--X-X-X-X--X-X-X--|
|--5-5-X-X--3-3-X-X--5-5-X-X--8-8-7--|
|--5-5-X-X--3-3-X-X--5-5-X-X--8-8-7--|
|--3-3-X-X--1-1-X-X--3-3-X-X--6-6-5--|
|--3-3-X-X--1-1-X-X--3-3-X-X--6-6-5--|

Eletric guitar 2:
|--X-X-X-X--X-X-X-X--X-X-X-X--X-X-X--|
|--X-X-X-X--X-X-X-X--X-X-X-X--X-X-X--|
|--5-5-X-X--3-3-X-X--5-5-X-X--8-8-7--|
|--5-5-X-X--3-3-X-X--5-5-X-X--8-8-7--|
|--3-3-X-X--1-1-X-X--3-3-X-X--6-6-5--|
|--3-3-X-X--1-1-X-X--3-3-X-X--6-6-5--|

Solo:
|-------------------6~~~~6\3--3-----------------------------------------
|--------3~~~~4~~~~---------------4~~--3~~---1~~-4-4-4-3-3-3-3-1-1-1-1--
|--5~~~~-----------------------0-----0----0-----------------------------
|-----------------------------------------------------------------------
|-----------------------------------------------------------------------
|-----------------------------------------------------------------------

|--------------------------3--3-----------------------------|
|--1-1-1-1----------1-1--4--4--4--3-4-3--------3-4-3-4b(6)--|
|----------3-3-3-3----------------------5~~~~---------------|
|-----------------------------------------------------------|
|-----------------------------------------------------------|
|-----------------------------------------------------------|


Back