StatTrack
web space | free website | Business WebSite Hosting | Free Website Submission | shopping cart | php hosting
Purest feeling

Bassline:
E-|-----------|--------|---------------------------|--------------------------|
B-|-----------|--------|---------------------------|--------------------------|
G-|-----------|--------|---------------------------|--------------------------|
D-|-----------|--------|-----7---------5---------2-|--------------------------|
A-|-----------|--------|---------------------------|--------------------------|
E-|-5---3---0-|-0-3--3-|-5-----5---3-------0---0---|-0-3--3-------------------|

Horns (sound can be acheived with a volume swell on first chord):
E-|---------|---------|-------------------------------------------------------|
B-|-12vs----|-12s10---|-------------------------------------------------------|
G-|-11vs----|-11s9----|-------------------------------------------------------|
D-|---------|---------|-------------------------------------------------------|
A-|---------|---------|-------------------------------------------------------|
E-|---------|---------|-------------------------------------------------------|

Verse:
E-|---------------------------------|-----------------------------------------|
B-|---------------------------------|-----------------------------------------|
G-|---------------------------------|-----------------------------------------|
D-|---------------------------------|-----------------------------------------|
A-|-7-7-7-7-7-7-7-7-7-7-7-7-7-7-7-7-|-5-5-5-5-5-5-5-5-5-5-5-5-5-5-5-5---------|
E-|---------------------------------|-----------------------------------------|

E-|---------------------------------|-----------------------------------------|
B-|---------------------------------|-----------------------------------------|
G-|---------------------------------|-----------------------------------------|
D-|---------------------------------|-----------------------------------------|
A-|---------------------------------|-----------------------------------------|
E-|-5-5-5-5-5-5-5-5-5-5-5-5-5-5-5-5-|-3-3-3-3-3-3-3-3-3-3-3-3-3-3-3-3---------|