StatTrack
web space | website hosting | Business Hosting Services | Free Website Submission | shopping cart | php hosting
a warm place
by nine inch nails


-5---------------3---------------1---------------1---------------
-3---------------1-------------------------------1---------------
---------------------------------3-------------------------------
-0-0-0-0-0-0-0-0-------------------------------------------------
-----------------3-3-3-3-3-3-3-3-1-1-1-1-1-1-1-1-----------------
-------------------------------------------------1-1-1-1-1-1-1-1-
repeat 1x
-----------------3-----5-----6---8--------10---8-----------------
-3-----5-----6------------------------------10-------------------
-----------------------------------------------------------------
-0-0-0-0-0-0-0-0-------------------------------------------------
-----------------3-3-3-3-3-3-3-3-----------------8-8-8-8-8-8-8-8-
---------------------------------6-6-6-6-6-6-6-6-----------------
repeat 2x
-3-----------4-------------------
-4---------------8-----------9---
-5---------------8---------------
-----------------8---------------
-----------------6-6-6-6-6-6-6-6-
-4-4-4-4-4-4-4-4----------------- repeat 1x

-3-----------4---6-----------------------------------------------
-4---------------6---------------4---------------4---------------
-5---------------7---------------5---------------3---------------
-------------------------------------------------1-1-1-1-1-1-1-1-
-3-3-3-3-3-3-3-3-------------------------------------------------
-----------------6-6-6-6-6-6-6-6-4-4-4-4-4-4-4-4-----------------
repeat 1x
-----------------------------------------------------------------
-4---------------3-----------------------------------------------
-5---------------3---------------5---------------3---------------
-5---------------3---------------6---------------1-1-1-1-1-1-1-1-
-3-3-3-3-3-3-3-3-1-1-1-1-1-1-1-1-6-------------------------------
---------------------------------4-4-4-4-4-4-4-4-----------------

-----------------1-----3-----4---6---------8---6----------------
-1-----3-----4-------------------------------8-------------------
-----------------------------------------------------------------
-----------------------------------------------------------------
-3-3-3-3-3-3-3-3-1-1-1-1-1-1-1-1-----------------6-6-6-6-6-6-6-6-
---------------------------------4-4-4-4-4-4-4-4-----------------

-----------------1-----3-----------------------------------------
-1-----3-----4---------------------------------4-----------------
-----------------------------3---3-------------------------------
-------------------------------------------6-5-------------------
-3-3-3-3-3-3-3-3-1-1-1-1-1-1-1-1-----------------6---------------
---------------------------------4-4-4-4-4-----------------------

there you have it. even though a warm place was arranged for the keyboard, it still sounds good in guitar. remember to print in notepad for windows or ms-dos prompt so it would line up. comments, suggestions, questions, etc., email markm88879@aol.com


Back