StatTrack
web space | free hosting | Business Hosting Services | Free Website Submission | shopping cart | php hosting
nin-we're in this together piano tab We're In This Together
tabbed by daria - daria6666@hotmail.com

End Piano:
treble clef:
|------------------------------------------|
|------------------------------------------|
|------------------------------------------|
|--------------------------------0---------|
|------------------------------------------|
                      0       0
---0---------0------0-------0------0---0---|
 0   0     0   0   0       0         0
     --0--
         0             0


treble clef:
|-------------------------------------------|
|-------------------------------------------|
|----------------------------------------0--|
|--------------------------------0----------|
|-------------------------------------------|
                               0
---0---------0------0-------0------0--------|
 0   0     0   0   0  0    0         0
     --0----------------0
         0                 0


Bass clef:
           -0-
   0 0   0    0
|------0--------0---|
|-------------------|
                0b
|--0-0-0-0--0-0-----|
|-------------------|
|-------------------|


Back