StatTrack
web space | website hosting | Business WebSite Hosting | Free Website Submission | shopping cart | php hosting
The New Flesh
tuning: standard
tabbed by daria - daria6666@hotmail.com

/=slide
b=bend

Bass:
|----------|
|----------|
|----------|
|--3/1--1--|

Guitar 1: 2:02
|--------------------------------------------|
|--------------------------------------------|
|--------------------------------------------|
|--5-3-3-3-3--2-3-5-3-0--3-2-2-2-------------|
|--------------------------------3-1-3-1-----|
|-----------------------------------------3--|

Outro: Guitar 2: 2:40
|---------------------|
|---------------------|
|--12b--10b--9b-------|
|----------------10b--|
|---------------------|
|---------------------|


Back