nin-10 miles high guitar tab 10 Miles High
tuning: standard
tabbed by daria - daria6666@hotmail.com

b=bend
pb=pre bend

Intro: guitar 1
|--------------------|
|--------------------|
|--------------------|
|-----2----2----2----|
|--------------------|
|--0----0----0-------|

Bass: 1:19
|--------------------|
|--------------------|
|--------------------|
|--9-9-9-9-9--10-12--|

1:40 guitar 2:
|--6b--6b--6b--6b--|----------------------|
|------------------|----------------------|
|------------------|----------------------|
|------------------|--5pb--5pb--5pb--5pb--|
|------------------|----------------------|
|------------------|----------------------|

2:21:
|-------------------------------|
|-------------------------------|
|--3-3-3-3--4--6-6-6-6-6-6--7---|
|--3-3-3-3--4--6-6-6-6-6-6--7---|
|--1-1-1-1--2--4-4-4-4-4-4--5---|
|-------------------------------|


Back