StatTrack
web space | free hosting | Web Hosting | Free Website Submission | shopping cart | php hosting
Ripe with Decay
tuning: down one half step (low to high: Eb Ab Db Gb Bb eb)
tabbed by daria - daria6666@hotmail.com

/=slide
h=hammer on
p=pull off
~~~=vibrato

Intro: guitar 1:
|---------------------0--|
|------------------------|
|------------------------|
|--8--7-7--8-8--7--------|
|--7--7-7--7-7--7--7-----|
|------------------------|

guitar 2: 0:18
|--------------------|
|--5b~~~~~~~~~~~~~~~~|
|--------------------|
|--------------------|
|--------------------|
|--------------------|

guitar 1: 0:40
|---------------------0--------|
|------------------------5~~~~~|
|------------------------------|
|--8--7-7--8-8--7--------------|
|--7--7-7--7-7--7--7-----------|
|------------------------------|

piano arr. for guitar 3: 0:52
|-----------|
|--6--5--3--|
|-----------|
|-----------|
|-----------|
|-----------|

guitar 1: 0:54
|-------------------------0--|
|----------------------------|
|----------------------------|
|--8--7-7--8-8-8--7-7--------|
|--7--7-7--7-7-7--7-7--7-----|
|----------------------------|

guitar 2:
|------------------|
|--5~~~~~~~~~~~~~~~|
|------------------|
|------------------|
|------------------|
|------------------|

guitar 4: 1:08
|------------------------|
|------------------------|
|--12---9~~~~~~~~~~~~~~~~|
|------------------------|
|------------------------|
|------------------------|

3:02: guitar 1:
|---------------------0--|
|------------------------|
|------------------------|
|--8--7-7--8-8--7--------|
|--7--7-7--7-7--7--7-----|
|------------------------|

3:21: piano:
|---------------0------------------|
|-----8--5----0--------------------|
|-----------0----------------------|
|-------------------7--9-7-9--7-9--|
|----------------------------------|
|--0-------------------------------|

3:36: strings:
|--------------------|
|--------------------|
|--9--5-6-7--7/9/12--|
|--------------------|
|--------------------|
|--------------------|

4:42: bass:
|---------------------------|
|---------------------------|
|------------------------7--|
|--0--10-8-7--0--10-8-7-----|

5:40:
|-----------------------------------|
|--12-----12--12-----12--12-----12--|
|--14/15--14--14/15--14--11/12--11--|
|-----------------------------------|
|-----------------------------------|
|-----------------------------------|

guitar 5: 5:40
|-----------------------------|----------------------------------------|
|--19--repeat-a-lot-of-times--|--and-in-some-places--19--20-20-20--19--|
|-----------------------------|----------------------------------------|
|-----------------------------|----------------------------------------|
|-----------------------------|----------------------------------------|
|-----------------------------|----------------------------------------|

guitar 6: 5:58
|-------------------------------|
|-------10--8---10--10--11--12--|
|--9--9--9--7----9---9--10--11--|
|--7--7--7--5----7---7---8---9--|
|--7--7--7--5----7---7---8---9--|
|--0--0--0--0----0---0---0---0--|


Back