StatTrack
web space | website hosting | Web Hosting | Free Website Submission | shopping cart | php hosting
Underneath It All
tuning: drop d (low to high: D A D G B e)
tabbed by daria - daria6666@hotmail.com

h=hammer on
/=slide

Intro:
|---------------------------------------15h7--15h17--|
|--15-15----15-15----16-16----16-16------------------|
|--------14-------14-------14-------14---------------|
|----------------------------------------------------|
|----------------------------------------------------|
|----------------------------------------------------|

0:43: at 1:04 it gets clearer:
|------------------------------------|
|------------------------------------|
|--8-----8-----8-----8---------------|
|--8--7--8--7--8--7--8--7--5/7--5/7--|
|--6--7--6--7--6--7--6--7--5/7--5/7--|
|-----7-----7-----7-----7--5/7--5/7--|


Back