StatTrack
web space | free hosting | Business WebSite Hosting | Free Website Submission | shopping cart | php hosting
The Big Come Down
tuning: drop d (low to high: D A D G B e)
tabbed by daria - daria6666@hotmail.com

/=slide
b=bend

Intro, Verse, Chorus and Outro: Guitar 1
|--------------------------------------------------------------------|
|--------------------------------------------------------------------|
|-------7--11-------7------------7--11-------7--11--11-11--13-13-13--|
|--0-2--7--10--0-2--7--11b--0-2--7--11--0-2--7--11--11-11--13-13-13--|
|-------5---9-------5---9b-------5---9-------5---9---9--9--11-11-11--|
|--------------------------------------------------------------------|

Chorus: guitar 2:
|-----------------------|
|-----------------------|
|-----------------------|
|--8----------5---------|
|--8--(x11)---5--(x11)--|
|--8----------5---------|

Chorus: bass arr. for guitar 3:
|-----------------------|
|-----------------------|
|-----------------------|
|------12-10--8-7--5-4--|
|-----------------------|
|--12-------------------|

2nd verse and chorus: guitar 4:
|---------------------|
|--7/8\7--7/8--7-6-6--|
|---------------------|
|---------------------|
|---------------------|
|---------------------|

2:21
|-----|
|-----|
|--5--|
|--3--|
|-----|
|-----|

Solo: 3:07
|---------------------------------------5b---------------------|
|--------------------------------------------------------------|
|--7--5-7-5--7--5-7-5--(x2)---7--5-7-5------5-7-5--7--5-7-5-7--|
|--------------------------------------------------------------|
|--------------------------------------------------------------|
|--------------------------------------------------------------|


Back