StatTrack
web space | website hosting | Business Hosting | Free Website Submission | shopping cart | php hosting
The Great Collapse
tuning: drop d (low to high: D A D G B e)
tabbed by daria - daria6666@hotmail.com

p.m.=palm mute

piano arr. for guitar 1:
|---------------|---------------------------|
|--10--9--(x9)--|--10-8--3-5--10-8--3-5--3--|
|---------------|---------------------------|
|---------------|---------------------------|
|---------------|---------------------------|
|---------------|---------------------------|

guitar 2:
|--------------------|
|--------------------|
|--------------------|
|--5-5--5-5--5--5-5--|
|--5-5--5-5--5--5-5--|
|--5-5--5-5--5--5-5--|
p.m.---------------

guitar 3: 1:10
|------------------|
|------------------|
|--7(x21)--5(x21)--|
|------------------|
|------------------|
|------------------|

guitar 4: 1:31
|--------------|
|--------------|
|--------------|
|--7/10--7/10--|
|--------------|
|--------------|

guitar 4: 1:42
|----------------------|
|----------------------|
|--12~~~~~~~~7--9--11--|
|----------------------|
|----------------------|
|----------------------|

Bass: 2:03
|----------|
|----------|
|----7\----|
|----------|

guitar 3: 2:12
|------------------|
|------------------|
|--7(x21)--5(x21)--|
|------------------|
|------------------|
|------------------|

guitar 4: 2:43
|----------------------|
|----------------------|
|--12~~~~~~~~7--9--11--|
|----------------------|
|----------------------|
|----------------------|

Bass: 2:58 (play bass and piano part together)
|---------------------|
|---------------------|
|--7-7/10-10\7-7\5-5--|
|---------------------|
piano arr. for guitar 1:
|---------|
|--10--9--|
|---------|
|---------|
|---------|
|---------|

guitar 5: 3:18
|---------------------------------------------------------
|--9b10r9--9b10r9--9b10r9--9b10r9--9b10r9--8b9r8--8b9r8---
|---------------------------------------------------------
|---------------------------------------------------------
|---------------------------------------------------------
|---------------------------------------------------------

|--------------------------------|
|--10b11r10--10b11r10--10b11r10--|
|--------------------------------|
|--------------------------------|
|--------------------------------|
|--------------------------------|


Back