StatTrack
web space | free hosting | Business Hosting | Free Website Submission | shopping cart | php hosting
I’m Looking Forward To Joining You, Finally
tuning: drop d (low to high: D A D G B e)
tabbed by daria - daria6666@hotmail.com

/=slide

Verse: Bass:
|-------------------------------|
|-------------------------------|
|-------------------------------|
|--0-0--3/6-6--3/5-5--3/6-6--3--|

‘in the blur of serenity’:
|-------------------------------|
|-------------------------------|
|-------------------------------|
|--0--6-5-5-3--0--6-5-5-3--1----|

Chorus:
|------------------------------------------|
|------------------------------------------|
|-----3--3---------------------------------|
|--5-------3--0-0--3/6-6--3/5-5--3/5-5--3--|

‘the fools devotion’:
|-------------------------------------------------------------|
|-------------------------------------------------------------|
|-------------------------------------------------------------|
|--0--6-5-5-3--0--6-5-5-3--1--0-10-12-12-10--0--6-5--3-3--1--|

2:40:
|--------------------|
|--------------------|
|--------------------|
|--5-7-10--12-10-12--|

Outro:
|-------------------------------|
|-------------------------------|
|-------------------------------|
|--0-0--3/6-6--3/5-5--3/6-6--3--|


Back