StatTrack
web space | free website | Business Web Hosting | Free Website Submission | shopping cart | php hosting
Complication
tuning: drop d (low to high: D A D G B e)
tabbed by daria - daria6666@hotmail.com

b=bend

guitar 1:
|--------------|
|--------------|
|--7--5--------|
|--------5--9--|
|--------------|
|--------------|

Synth arr. for guitar 2:
|-----------------|
|-----------------|
|-----------------|
|--10--5--3--0-0--|
|-----------------|
|-----------------|

0:57 guitar 3 w/wah:
|---------------------|
|---------------------|
|--12b--11b--10b--9b--|
|---------------------|
|---------------------|
|---------------------|


Back