StatTrack
web space | free hosting | Business Hosting | Free Website Submission | shopping cart | php hosting
Refuse To Be A Victim Seminar and Self Defense classes
Starfuckers, Inc.
tuning: drop d (low to high: D A D G B e)
tabbed by daria - daria6666@hotmail.com

/=slide
b=bend

Verse: Bass
|-------------|
|-------------|
|-------------|
|--0/1/2\1\0--|

Chorus: guitar
|----------------------------------------|
|----------------------------------------|
|---------15-15-15-15--------------------|
|--9/12---15-15-15-15--12--14---9/12-----|
|--9/12---13-13-13-13--12--14---9/12-----|
|--9/12----------------12--14---9/12-----|

guitar 2: 3:33
|---------------------|
|---------------------|
|--12b--11b--10b--9b--|
|---------------------|
|---------------------|
|---------------------|


Back