StatTrack
web space | free website | Web Hosting | Free Website Submission | shopping cart | php hosting
Please
tuning: drop d (low to high: D A D G B e)
tabbed by daria - daria6666@hotmail.com

p=pull off
/=slide
>>>>><<<<< = slide down the fretboard and then back up

Intro: guitar:
|-----------------|
|-----------------|
|-----------------|
|--2-2--2p0--2-5--|
|--2-2--2p0--2-5--|
|--2-2--2p0--2-5--|

Verse: Bass
|------------------------------------|
|------------------------------------|
|------------------------------------|
|--2-2-2-2--6--3-3--5-5-5-5--6--3-3--|

Chorus:
|------------------|
|------------------|
|------------------|
|--8--11--7--4--2--|
|--8--11--7--4--2--|
|--8--11--7--4--2--|

And it keeps repeating:
|------------------------------------------|
|------------------------------------------|
|------------------------------------------|
|--6-6-6-6-6-6-6-6-6-6-6-6-->>>>><<<<<--6--|
|------------------------------------------|
|------------------------------------------|

ending:
|----------------------|
|----------------------|
|----------------------|
|--2/5\2--9\8--7--5/6--|
|----------------------|
|----------------------|


Back