StatTrack
web space | free hosting | Web Hosting | Free Website Submission | shopping cart | php hosting
The Mark Has Been Made
tuning: drop d (low to high: D A D G B e)
tabbed by daria - daria6666@hotmail.com

/=slide
b=bend
r=release

Intro: guitar 1
|--------------------------|
|--------------------------|
|--------------------------|
|----7b8r7----7b8r7---5-4--|
|---------------------5-5--|
|--0--------0--------------|

1:04 guitar 2 arr. for cello
|----------------------|
|----------------------|
|----------------------|
|----------------------|
|--5-4-0-3-2-----------|
|------------5-0-3-5-0-|

guitar 1: 1:12
|----------------------|
|----------------------|
|----------------------|
|----------------------|
|--5-4-0-3-2-----------|
|------------5-0-5-3-0-|

guitar 2: 1:20
|----------------------|
|----------------------|
|----------------------|
|----------------------|
|--5-4-0-3-2-----------|
|------------5-0-3-5-0-|

guitar 1: 1:28
|----------------------|
|----------------------|
|----------------------|
|----------------------|
|--5-4-0-3-2-----------|
|------------5-0-3-5-0-|

guitar 2: 1:36
|----------------------|
|----------------------|
|----------------------|
|----------------------|
|--5-4-0-3-2-----------|
|------------5-0-3-5-0-|

guitar 1: 1:28
|----------------------|
|----------------------|
|----------------------|
|----------------------|
|--5-4-0-3-2-----------|
|------------5-0-5-3---|

1:52
|---------------------------------------------------------------
|---------------------------------------------------------------
|---------------------------------------------------------------
|--0-3--x--3--x--0-3--x--3--4-5--3--x--3-0--4-4--x-x--5-5--4-4--
|-------------------------------------------5-5-------5-5--5-5--
|---------------------------------------------------------------

|----------------------------|
|----------------------------|
|----------------------------|
|--0-3--x--3--x--0-3--x--3---|
|----------------------------|
|----------------------------|

2:56 guitar 1:
|--------------------------|
|--------------------------|
|--------------------------|
|----7b8r7----7b8r7---5-4--|
|---------------------5-5--|
|--0--------0--------------|

guitar 2: 3:01
|-----------------|
|-----------------|
|--5-5--4-4--3-3--|
|--5-5--5-5--4-4--|
|-----------------|
|-----------------|

3:28
|-----------------------------------------|
|-----------------------------------------|
|-----------------------------------------|
|-----------------------------------------|
|--------------------------------------8--|
|--0--12\11--0-11\10--0-10\9--0-9\8--7----|

4:21 guitar 2: outro
|-----------------|
|-----------------|
|--5-5--4-4--3-3--|
|--5-5--5-5--4-4--|
|-----------------|
|-----------------|


Back