StatTrack
web space | free website | Business Hosting Services | Free Website Submission | shopping cart | php hosting
Where Is Everybody?
tuning: drop d (low to high: D A D G B e)
tabbed by daria - daria6666@hotmail.com

/=slide
p.m.=palm mute
b=bend
r=release

Intro and Verses: Guitar 1
|--------------------|
|--------------------|
|--------------------|
|--3-3--1/3--3--1/3--|
|--3-3--1/3--3--1/3--|
|--3-3--1/3--3--1/3--|

guitar 2:
|--------------------------------|
|--------------------------------|
|--------------------------------|
|--1-3-1-0------1--5b6r5--1------|
|----------1-0--------------1-0--|
|--------------------------------|

"id like to stay.."
|--11-----11-----11-11--|
|-----------------------|
|-----10-----10---------|
|-----------------------|
|-----------------------|
|-----------------------|

Chorus:
|-----------------------------------------------------------|
|-----------------------------------------------------------|
|-----------------------------------------------------------|
|---------15-15b--13------------13------13--8------8--------|
|-------------------13---13-------13--13------8-------------|
|--15-15--------------13----13------13----------8-----x--6--|

3:34
|------------------------------------
|--10-10-10-10-10--10/11\10--/11\10--
|--14-14-14-14-14--14/15\14--/15\14--
|------------------------------------
|------------------------------------
|------------------------------------

|------------------------------------|
|---9--9--9--9--9---9/10\9---/10\9---|
|--13-13-13-13-13--13/14\13--/14\13--|
|------------------------------------|
|------------------------------------|
|------------------------------------|

4:27: guitar 4
|----------------|
|----------------|
|----------------|
|--4--4-4--3--3--|
|--4--4-4--3--3--|
|--4--4-4--3--3--|
p.m.

guitar 2: 4:27
|-----------------------------|
|-----------------------------|
|--13--10/13--14--13--14--13--|
|-----------------------------|
|-----------------------------|
|-----------------------------|


Back