StatTrack
web space | free hosting | Business Hosting Services | Free Website Submission | shopping cart | php hosting
nin-Into The Void guitar tab Into The Void
tuning: drop d then down one step (low to high: C G C F A d)
tabbed by daria - daria6666@hotmail.com

h=hammer
/=slide

Guitar intro:
|--------------------------------|
|--------------------------------|
|--------------------------------|
|--10-11-12--0-3--0h10-11-12-----|
|--------------------------------|
|--------------------------------|

Bass riff:
|------------------------------|
|------------------------------|
|------------------------------|
|--10/11/12--0-3--0h10-11-12---|

2:06:
|----------------------------------|
|----------------------------------|
|----------------------------------|
|--0--10--10/9--9/8--8/7-----------|
|----------------------------------|
|----------------------------------|

3:22 (and in the background in other places during the song)
|-------------------------------------------------|
|-------------------------------------------------|
|-------------------------------------------------|
|-----------10----------12-10-12-14-12-10---------|
|--12-10-12----12--12----------------------12-----|
|-------------------------------------------------|

Solo:
|-----------------------|
|-----------------------|
|-----------------------|
|-----------------------|
|--12-10-6/7/8/9--------|
|-----------------------|



back>