StatTrack
web space | website hosting | Business Hosting | Free Website Submission | shopping cart | php hosting
The Way Out Is Through
tuning: drop d (low to high: D A D G B e)
tabbed by daria - daria6666@hotmail.com

/=slide

1:24
|-------------------------------|
|-------------------------------|
|-------------------------------|
|--0-0-10--0-0-10--1-0-10--0-9--|
|-------------------------------|
|-------------------------------|

2:06
|-----------------------------------|
|-----------------------------------|
|-----------------------------------|
|--12\10/12--14-----------12/13\12--|
|---------------12-12-14------------|
|-----------------------------------|

2:49
|-------------------|
|-------------------|
|------------7/8\7--|
|--0--3--10--7/8\7--|
|--0--3--10--5/6\5--|
|--0--3--10---------|


Back