StatTrack
web space | free website | Web Hosting | Free Website Submission | shopping cart | php hosting
The Great Below
tuning: standard
tabbed by daria - daria6666@hotmail.com

p=pull off
/=slide

Intro and Verse:
|------------------------|
|------------------------|
|--6-7-9--6-7-9--9/10\9--|
|------------------------|
|------------------------|
|------------------------|

Bass: 2:48
|--------------------------------------|------------------------------------|
|--------------------------------------|------------------------------------|
|--5-5-5-5--3-3-3-3--1-1-1-1--0-0-0-0--|--5-5-5-5--3-3-3-3------------------|
|--------------------------------------|-------------------3-3-3-3-1-1-1-1--|
   i descend from grace                   i will take my place

guitar 2: outro:
|-----------------|-----------------|
|--10p8-------5---|--10p8-------6---|
|-----------------|-----------------|
|--------7p5------|--------7p5------|
|-----------------|-----------------|
|-----------------|-----------------|


Back