StatTrack
web space | free hosting | Business Hosting Services | Free Website Submission | shopping cart | php hosting
No, You Donít
tuning: drop d (low to high: D A D G B e)
tabbed by daria - daria6666@hotmail.com

/=slide
h=hammer on
p=pull off

Main riff:
|-----------------------------|
|-----------------------------|
|-----------------------------|
|--6/7\6--2/3\2--2p0--3-4-5/--|
|--6/7\6--2/3\2--2p0--3-4-5/--|
|--6/7\6--2/3\2--2p0--3-4-5/--|

1:33
|-------------|
|-------------|
|--9--x--9-9--|
|-------------|
|-------------|
|-------------|

1:47
|---------------|
|---------------|
|---------------|
|--4/5--x--2-2--|
|---------------|
|---------------|

just for the record: 2:18
|------------------|
|------------------|
|------------------|
|--2p0h2-----------|
|--------0h1h2-----|
|---------------5--|


Back