StatTrack
web space | free website | Web Hosting | Free Website Submission | shopping cart | php hosting
Pilgrimage
tuning: drop d (low to high: D A D G B e)
tabbed by daria - daria6666@hotmail.com

/=slide

Intro: guitar 1: 0:06
|---------------------|
|---------------------|
|--5-5-5-5-5-5-5-5-5--|
|---------------------|
|---------------------|
|---------------------|

0:18 guitar 2:
|--------4------------------------------|
|--4/5\4---7-5-4-----------4------------|
|----------------6--5/6\5----6-5--------|
|--------------------------------4/6-6--|
|---------------------------------------|
|---------------------------------------|

0:54 guitar 3:
|--------------------------|
|--------------------------|
|--------------------------|
|--4/5-6-/-10--4/5-5/6--7--|
|--4/5-6-/-10--4/5-5/6--7--|
|--4/5-6-/-10--4/5-5/6--7--|


Back