StatTrack
web space | website hosting | Business Web Hosting | Free Website Submission | shopping cart | php hosting
Just Like You Imagined
tuning: drop d (low to high: D A D G B e)
tabbed by daria - daria6666@hotmail.com

h=hammer on
p=pull off
/=slide

Intro: piano:
|-------------|
|-------------|
|-------------|
|---7--3-2-0--|
|-------------|
|-------------|

guitar 1:
|------|
|------|
|--10--|
|---8--|
|------|
|------|

Bassline:
|---------------------|
|---------------------|
|--5---5-------1--3---|
|----0---3--5---------|

guitar 2: 0:54
|---------13------|
|-------------15--|
|--10h12----------|
|-----------------|
|-----------------|
|-----------------|

guitar 1: 1:06
|-----------------------------------|
|-----------------------------------|
|-----------------------------------|
|--0--7-7-7-7-8-8-8-9-9-9-10-10-10--|
|--0--5-5-5-5-6-6-6-7-7-7--8--8--8--|
|--0--------------------------------|

guitar 3: 1:55
|---------------------|
|---------------------|
|---------------------|
|--0--3-5--7--8\7--7--|
|--0------------------|
|--0------------------|

2:25: guitar 2:
|----------|
|------15--|
|----------|
|--0-------|
|----------|
|----------|

2:42:
|-----------------------|
|-----------------------|
|-----------------------|
|-----------------------|
|-----------------------|
|--0--7/8\7\5--5/7\5\3--|

Piano outro:
|----------------|
|----------------|
|----2--3--7--9--|
|--3-------------|
|----------------|
|----------------|



Back