StatTrack
web space | website hosting | Business Hosting | Free Website Submission | shopping cart | php hosting
The Fragile
tuning: standard
tabbed by daria - daria6666@hotmail.com

Verse: Bass:
|----------------------------------------|
|----------------------------------------|
|----8-8---------2-3-2----8-8------------|
|--3------1-1--3--------3------1-1--1-3--|

Chorus: Bass:
|-----------------------------------------------------------------
|-----------------------------------------------------------------
|--5-5-5-5-6-6-6-8-8-8-8-8---------5-5-5-5-6-6-6-8-8-8-8-8--------
|--------------------------3-3-3-3-------------------------3-3----

|-----------------------------------------------------------|
|-----------------------------------------------------------|
|--5-5-5-5-6-6-6-8-8-8-8-8---------5-5-5-5-6-6-6-8-8-8-8-8--|
|--------------------------3-3-3-3--------------------------|

Verse 2: Bass:
|----------------------------------------------------------------------|
|----------------------------------------------------------------------|
|----8-8--------2-3-2---8-8-------------8-8--------2-3-2---8-8---------|
|--3-----1-1--3-------3-----1-1--1-3--3-----1-1--3-------3-----1-1--1--|

Verse: Guitar:
|-------------------|
|-------------------|
|-----11---11---11--|
|--9-----9----9-----|
|-------------------|
|-------------------|

Chorus 2:Bass
|-----------------------------------|
|-----------------------------------|
|--5-5-5-5-6-6-6-8-8-8-8-8----------|
|--------------------------3-3-3-3--|

Chorus 2: guitar
|--15-15-15-15-15-15-15-15-15-15-15--|
|--15-15-15-15-15-15-15-15-15-15-15--|
|------------------------------------|
|------------------------------------|
|------------------------------------|
|------------------------------------|

Guitar: 2:23
|--------------------|
|--------------------|
|--9-9-9-9--10--9-9--|
|--------------------|
|--------------------|
|--------------------|

2:46
|---------------------------------|
|---------------------------------|
|---------11--------11--------11--|
|--9-9-9-----9-9-9-----9-9-9------|
|---------------------------------|
|---------------------------------|

3:00
|---------------------------------|
|---------------------------------|
|-----------------------------11--|
|--9--9-9--9--9-9--9--9-9--9------|
|---------------------------------|
|---------------------------------|

Bass played during solo:
|-----------------------------------|
|-----------------------------------|
|--5-5-5-5-6-6-6-8-8-8-8-8----------|
|--------------------------3-3-3-3--|

Solo:
|----------------------------------------------------------------------
|----------------------------------------------------------------------
|----------------------------------------------------------------------
|---------------------------------------12-12-12-----------------------
|--10-10-10-10---------1---10-10-10-10------------8-----7-7-7-7-8-8-8--
|---------------8-8-8----3--------------------------8-7----------------

|-----------------------------------------------------------------------
|-----------------------------------------------------------------------
|-----------------------------------------------------------------------
|-----------------------------------------------------------------------
|------10-10-10-10-------1---7-7-7-7-8-8-8---------------8-8-8-8--------
|--8-7-------------8-8-8---3---------------6-8--10/11\10---------8-8-8-8

|---------------------------------------------------------------|
|---------------------------------------------------------------|
|---------------------------------------------------------------|
|---------------------------12-12-12----------------------------|
|--10-10-10----10-10-10-10-----------8-----7-7-7-7-8-8-8--1-----|
|-----------10-------------------------8-7-------------------3--|


Back