StatTrack
web space | website hosting | Web Hosting | Free Website Submission | shopping cart | php hosting
The Wretched
tuning: standard
tabbed by daria - daria6666@hotmail.com

h=hammer on
p=pull off
/=slide
b=bend

piano:
|--------------------------|
|--------------------------|
|--------------------------|
|---------------------3----|
|---------5-------------5--|
|--1-3-4----4--1-3-4-------|

the hopes and prays:
|-------------------------------------------------------------
|-------------------------------------------------------------
|-------------------------------------------------------------
|----------3-0----------3-0-----------3-0-----------3-0-------
|--3-3-2-1-----3-3-2-1-------3-3-2-1-------3-3-2-1------------
|--------------------------------------------------------1h3--

|------------------------------------------------------------------|
|------------------------------------------------------------------|
|------------------------------------------------------------------|
|-----------3-0-----------3-0---------------3-0-----------3-0------|
|--3-3-2-1-------3-3-2-1----------3-3-2-1-------3-3-2-1------------|
|-----------------------------1h3-----------------------------1h3--|

Chorus:
|------------------------------|
|------------------------------|
|------------------------------|
|------------------------------|
|--6/8--9--10/11/12--3/5--3/5--|
|--4/6--7---8/-9/10--1/3--1/3--|

and in the end:
|---------------------------|
|--13--12----15--13--12-----|
|---------7--------------7--|
|---------------------------|
|---------------------------|
|---------------------------|

Chorus:
|------------------------------|
|------------------------------|
|------------------------------|
|------------------------------|
|--6/8--9--10/11/12--3/5--3/5--|
|--4/6--7---8/-9/10--1/3--1/3--|

Bridge:
|-------------------------------|
|-------------------------------|
|-------------------------------|
|-------------------------------|
|--7-8-7-8-7-10--7-8-7-8-7------|
|----------------------------3--|

Solo w/wah:
|-------------------------------------------------------------------
|-------------------------------------------------------------------
|-------------------------------------------------------------------
|--11b--11b--11b--3-------------5-----------------11b--11b--11b--3--
|--------------------1-3-4--------1-3-4-----------------------------
|---------------------------6p3---------6p3--6p3--------------------

|-------------------------------------------------------------------|
|-------------------------------------------------------------------|
|-------------------------------------------------------------------|
|-----------------------------------5--------------------------5p3--|
|--3p0--3h5--8\7-7\6-6\5--5------------8\7-7\6-6\5-5\3--------------|
|----------------------------6p3-3----------------------6p3--3------|

Chorus:
|------------------------------|
|------------------------------|
|------------------------------|
|------------------------------|
|--6/8--9--10/11/12--3/5--3/5--|
|--4/6--7---8/-9/10--1/3--1/3--|

outro:
|---------------|
|--13-12----15--|
|--------7------|
|---------------|
|---------------|
|---------------|


Back