StatTrack
web space | free hosting | Business Hosting Services | Free Website Submission | shopping cart | php hosting
The Frail
tuning: drop d (low to high: D A D G B e)
tabbed by daria - daria6666@hotmail.com

|--3---------3--10------------------3---------------------------------
|----1--------------6------5-6--------1---------------------6----8----
|------3--0-----------5-4------5-4------3--0--9--10--3-5-7----5----7--
|---------------------------------------------------------------------
|---------------------------------------------------------------------
|---------------------------------------------------------------------

|----10------------------------------------------------------|
|--8----6-----5-6--------------------------------------------|
|---------5-4------3--0--------------------------------------|
|------------------------------------------------------------|
|------------------------------------------------------------|
|------------------------0-1-3-5--0-1-3-5--0-1-3-5--0-1-3-5--|


Back