StatTrack
web space | website hosting | Web Hosting | Free Website Submission | shopping cart | php hosting
The Day The World Went Away
tuning: standard
tabbed by daria - daria6666@hotmail.com

~~~=vibrato

Intro: guitar 1 (x8 each, except last chord)
|-----------------|
|-----------------|
|--6--4-----------|
|--6--4--2--4--7--|
|--4--2--2--4--7--|
|--------0--2--5--|

guitar 2: 0:39
|------------------|
|------------------|
|--------------11--|
|--13--13--13------|
|------------------|
|------------------|

guitar 3: 0:53
|--------------------|
|--------------------|
|--9~~~6~~~8~~~4~~~--|
|--------------------|
|--------------------|
|--------------------|

Verse: Bass (x8 each, except last note)
|-----------------|
|-----------------|
|--4--2-----------|
|--------0--2--5--|

Guitar 2: 1:52
|--------------------|
|--1--5-5--6-6--7-7--|
|--2--6-6--7-7--8-8--|
|--3--7-7--8-8--9-9--|
|--------------------|
|--------------------|

Outro: guitar 1: (x8 each, except last chord)
|-----------------|
|-----------------|
|--6--4-----------|
|--6--4--2--4--7--|
|--4--2--2--4--7--|
|--------0--2--5--|

Bass: (x8 each, except last note)
|-----------------|
|-----------------|
|--4--2-----------|
|--------0--2--5--|

Guitar 4:
|---------------------|
|---------------------|
|---------------------|
|-------9--8-9-8------|
|--9-7------------11--|
|---------------------|

Guitar 5:
|----------|
|----------|
|----------|
|--14--13--|
|----------|
|----------|


Back