StatTrack
web space | free website | Business WebSite Hosting | Free Website Submission | shopping cart | php hosting
Somewhat Damaged
tuning: drop d (low to high: D A D G B e)
tabbed by daria - daria6666@hotmail.com

/=slide
p.m.=palm mute
b=bend

Intro and verse: guitar 1
|-----------|
|-----------|
|-----------|
|-----------|
|-----------|
|--0-1-2-3--|

guitar 2: 0:04
|-----------------------------------------|
|--12-12-12-12--12-12-12-12--13-13-13-13--|
|-----------------------------------------|
|-----------------------------------------|
|-----------------------------------------|
|-----------------------------------------|

guitar 3: 0:15
|----3b---0----|
|--3----3---3--|
|--------------|
|--------------|
|--------------|
|--------------|

guitar 2: 0:21
|---------------|
|---------------|
|---------------|
|--12-12-12-12--|
|---------------|
|---------------|

guitar 3: 0:33
|-----------|----3b---0----|
|--0-1-2-3--|--3----3---3--|
|-----------|--------------|
|-----------|--------------|
|-----------|--------------|
|-----------|--------------|

guitar 4: during verses:
|-------------------------------|
|-------------------------------|
|-------------------------------|
|--0-0-0-0-0-0-0-0-0-0-0-0-0-0--|
|--0-0-0-0-0-0-0-0-0-0-0-0-0-0--|
|--0-0-0-0-0-0-0-0-0-0-0-0-0-0--|
   p.m.-----------------------

1:48 guitar 5:
|----------------------|
|----------------------|
|--7/8--7/8--7/8--7/8--|
|----------------------|
|----------------------|
|----------------------|

2:06 guitar 1:
|---------|-----------|
|---------|-----------|
|---------|-----------|
|--1-2-3--|--0-1-2-3--|
|--1-2-3--|--0-1-2-3--|
|--1-2-3--|--0-1-2-3--|

guitar 5: 2:32
|----------------------|
|----------------------|
|--7/8--7/8--7/8--7/8--|
|----------------------|
|----------------------|
|----------------------|

guitar 6: 2:47
|------------|---------------------|
|--15-16-17--|--15-16-17-17-16-15--|
|------------|---------------------|
|------------|---------------------|
|------------|---------------------|
|------------|---------------------|

guitar 6: 3:39
|----------------------|
|----------------------|
|--10--9--8--10--9--8--|
|---0--0--0---0--0--0--|
|---0--0--0---0--0--0--|
|---0--0--0---0--0--0--|

Outro:
|-----------------------------|
|-----------------------------|
|-----------------------------|
|--0-0-0-0-0-0-0-0-0-0-0-0-0--|
|--0-0-0-0-0-0-0-0-0-0-0-0-0--|
|--0-0-0-0-0-0-0-0-0-0-0-0-0--|
   p.m.---------------------


Back