StatTrack
web space | website hosting | Business Hosting | Free Website Submission | shopping cart | php hosting
Self Destruction, Part Two
Fucked Up Guitar Sounds:
E|---------------------------|
B|-14\12-14\12-14\12--16-16--|
G|-16\14-16\14-16\14--18-18--|
D|---------------------------|
A|---------------------------|
E|---------------------------|

Chorus:
E|-----------------|-------------------|
B|-----------------|-14\12--14--14-----|
G|-----------------|-16\14--16--16-----|
D|-6----7----8--9--|-------------------|
A|-6----7----8--9--|-------------------|
E|-4----5----6--7--|-------------------|
The first four notes occur three times first.

Siren Sound:
G|--16\14--17~~~~--|

dex - http://www.angelfire.com/biz4/KarmaCop/nin.html


Back