StatTrack
web space | website hosting | Business Hosting | Free Website Submission | shopping cart | php hosting
nin-something i can never have piano tab Something I can never have
tabbed by daria - daria6666@hotmail.com

main melody
|------------------------------|
|------------------------------|
|------------------------------|
                    0b
|--0-0-0-0-0-0-0---------------|
|------------------------------|

------------------------0--

After intro: both staf’s played together
Treble staf:
|---------------------------------|
|---------------------------------|
|---------------------------------|
|---------------------------------|
                            0
|----------------------------0----|
           0  0b
--------0

Bass staf:
|----------------------------------|
   0
|----------------------------------|
                      0
|-------------------0--------------|
|----------------------------------|
|----------------------------------|



Back