StatTrack
web space | website hosting | Business Hosting Services | Free Website Submission | shopping cart | php hosting
nin-the wretched (version) guitar tab The Wretched (Version)
tuning: drop d (low to high: D A D G B e)
tabbed by daria - daria6666@hotmail.com

Intro: guitar 1 (play guitars 1 and 2 together)
|-----------------------------------|
|-----------------------------------|
|-----------------------------------|
|-----------------------------------|
|-----------------------------------|
|--5-x-5-x-5-x-5-x-5-x-5-x-5-x-5-x--|
guitar 2                 x4
|-----------------------------------|
|-----------------------------------|
|-----------------------------------|
|------------------------------8\---|
|------------------------------8\---|
|------------------------------8\---|

Verse:
play guitars 1 and 2

guitar 3:
|---------------|
|---------------|
|---------------|
|---------------|
|---------------|
|--5--5-5--5-5--|

guitar 1: 1:36 (play guitars 1 and 2 together)
|--------------------------------------------------------------------
|--------------------------------------------------------------------
|--------------------------------------------------------------------
|--------------------------------------------------------------------
|--------------------------------------------------------------------
|--5-x-5-x-5-x-5-x-5-x-5-x-5-x-5-x--5-x-5-x-5-x-5-x-5-x-5-x-5-x-5-x--
guitar 2
|----------------------------------|
|----------------------------------|
|----------------------------------|
|------------------------------8\--|
|------------------------------8\--|
|------------------------------8\--|

guitar 1:
|--------------------------------------------------------------------|
|--------------------------------------------------------------------|
|--------------------------------------------------------------------|
|--------------------------------------------------------------------|
|--------------------------------------------------------------------|
|--5-x-5-x-5-x-5-x-5-x-5-x-5-x-5-x--5-x-5-x-5-x-5-x-5-x-5-x-5-x-5-x--|

Verse 2: bass:
|--------------|-------------|-------------|-------------|
|--------------|-------------|-------------|-------------|
|--------------|-------------|-------------|-------------|
|--5--5-5--5-5-|-5--5-5--5-5-|-5--5-5--5-5-|-5--5-5--5-5-|

(play bass and guitar 2 together)
|--------------|-------------|--------------|--------------|
|--------------|-------------|--------------|--------------|
|--------------|-------------|--------------|--------------|
|--5--5-5--5-5-|-5--5-5--5-5-|-5--5-5--5-5--|-5--5-5--5-5--|
guitar 2:
|------------------------------------|
|------------------------------------|
|------------------------------------|
|--------------------------------8\--|
|--------------------------------8\--|
|--------------------------------8\--|

bass: (play bass and guitar 3 together)
|--------------|-------------|-------------|-------------|
|--------------|-------------|-------------|-------------|
|--------------|-------------|-------------|-------------|
|--5--5-5--5-5-|-5--5-5--5-5-|-5--5-5--5-5-|-5--5-5--5-5-|
guitar 3
|---------------------------------------------------------------------|
|------------------------------10-12--10-12--10-12--10-12--10-12~~~~~~|
|---------------------------------------------------------------------|
|---------------------------------------------------------------------|
|---------------------------------------------------------------------|
|---------------------------------------------------------------------|

bass: (play bass and guitar 2 together)
|--------------|-------------|--------------|
|--------------|-------------|--------------|
|--------------|-------------|--------------|
|--5--5-5--5-5-|-5--5-5--5-5-|-5--5-5--5-5--|
guitar 2:
|----------------------------------|
|----------------------------------|
|----------------------------------|
|------------------------------8\--|
|------------------------------8\--|
|------------------------------8\--|

bass: 2:30
|---------------|
|---------------|
|---------------|
|--5--5-5--5-5--|

bass: (play bass and guitar 3 together)
|------------------------------|
|------------------------------|
|------------------------------|
|--6/8--9-10--10/12--3/5--3/5--|
guitar 3:
|------------------------------|
|------------------------------|
|------------------------------|
|------------------------------|
|------------------------------|
|--6/8--9-10--10/12--3/5--3/5--|

Outro:
|--------------------------|
|--13-12----15--13--12-----|
|---------7-------------7--|
|--------------------------|
|--------------------------|
|--------------------------|


Back