StatTrack
web space | free hosting | Business WebSite Hosting | Free Website Submission | shopping cart | php hosting
Self Destruction, Final
Bassline:
G --3-3-3-3-4-4-4-4-5-5-5-5-7-7-7-7-------
D ----------------------------------------
A ----------------------------------------
E ----------------------------------------

G --3-3-3-3-4-4-4-4-5-5-5-5---------------
D ----------------------------3-----0-----
A ----------------------------------------
E ----------------------------------------

Guitar:
G|-----14----------14--|
D|-12------10-12-------|
A|---------------------|
E|---------------------|

Chorus: 3x:
E ----------------------------------------
B ----------------------------------------
G ---10----------11----12--13--14---------
D ---10----------11----12--13--14---------
A ---8-----------9-----10--11--12---------
E ----------------------------------------

After 3x:
E ----------------------------------------
B ----------------------------------------
G -7-7-7-7-7-7-7------10------------------
D -7-7-7-7-7-7-7------10------------------
A -5-5-5-5-5-5-5------8-------------------
E ----------------------------------------

dex - http://www.angelfire.com/biz4/KarmaCop/nin.html



Back