StatTrack
web space | website hosting | Business Web Hosting | Free Website Submission | shopping cart | php hosting
Nine Inch Nails The Fragile
Title: Complication
BASS TAB
emilkzrw@earthlink.net
http://home.earthlink.net/~emilkzrw/page1.htm
tuning: D A D G (drop d tuning)
12.26.99

Play 4 times:

G: |--------------------------------------|
D: |--------------------------------------|
A: |--------3--55----3---5----------------|
D: |--0--0-------------------5-5-4b(5)-4--|

4b(5)-play the forth fret on the D and bend the string one semitone up.

G: |--------------------------------------|
D: |--------------------------------------|
A: |--------3--55----3---5----------------|
D: |--0--0-------------------4---4--------|

G: |--------------------------------------|
D: |--------------------------------------|
A: |--------3--55----3---5----------------|
D: |--0--0-------------------5-5-4b(5)-4--|

G: |--------------------------------------|
D: |------------------------4b(5)---4v----|
A: |--------3--55----3---5----------------|
D: |--0--0--------------------------------|

v-vibrato


Back