StatTrack
web space | free hosting | Business Web Hosting | Free Website Submission | shopping cart | php hosting
Nine Inch Nails: The Fragile
Title: la mer
bass tablature
emilkzrw@earthlink.net
http://home.earthlink.net/~emilkzrw/page1.htm
tuning: E A D G
12.11.99

first bass line
G: |------------------------------------|
D: |------------------------------------|
A: |---------6---10---6---10------------|
E: |6---10---------------------4----6---|

second bass line
G: |------------------------------------|
D: |7/8/10-------------------7--8--10---|
A: |-----------6------------------------|
E: |--------6--------------8------------|


back