StatTrack
web space | free website | Business Web Hosting | Free Website Submission | shopping cart | php hosting
nin-Wish guitar tab Wish
tuning: standard
tabbed by daria - daria6666@hotmail.com

Verse:
|--------------------------------|
|--------------------------------|
|--7-7-7-7-7-8-7--7-7-7-7-7-8-7--|
|--7-7-7-7-7-8-7--7-7-7-7-7-8-7--|
|--5-5-5-5-5-6-5--5-5-5-5-5-6-5--|
|--------------------------------|

Chorus:
|---------------------------------------|
|---------------------------------------|
|--10--5--7-7-7-7-7-8-7--7-7-7-7-7-8-7--|
|--10--5--7-7-7-7-7-8-7--7-7-7-7-7-8-7--|
|---8--3--5-5-5-5-5-6-5--5-5-5-5-5-6-5--|
|---------------------------------------|

|---------------------------------------------|
|---------------------------------------------|
|--10--5-------7-7-7-7-7-8-7--7-7-7-7-7-8-7---|
|--10--5--5--6-7-7-7-7-7-8-7--7-7-7-7-7-8-7---|
|---8--3--5--6-5-5-5-5-5-6-5--5-5-5-5-5-6-5---|
|---------3--4--------------------------------|

1:53
|------------------|
|------------------|
|------------------|
|------------------|
|--5---3-----------|
|----------4---1---|

3:06 guitar 2:
|-----------------------------------------------------------|
|-----------------------------------------------------------|
|--7-5------7-x-x-x-x-x--7-x-x-x-x-x--7-x-x-x-x--7-5--------|
|--7-5-6-3--7-x-x-x-x-x--7-x-x-x-x-x--7-x-x-x-x--7-5--6-3---|
|--5-3-6-3--5-x-x-x-x-x--5-x-x-x-x-x--5-x-x-x-x--5-3--6-3---|
|------4-1--------------------------------------------4-1---|

3:22-guitar 3:
|-------------------------|
|-------------------------|
|--12-10-13---------------|
|-----------10-12---------|
|-------------------------|
|-------------------------|



back