StatTrack
web space | website hosting | Business Hosting Services | Free Website Submission | shopping cart | php hosting
The Downward Spiral
tuning: standard
tabbed by daria - daria6666@hotmail.com

|----------------------------|
|----------------------------|
|----------------------------|
|--9-7--7-6--5-4-------------|
|-----------------5-5-4-7-7--|
|----------------------------|

|--3--0--|
|--3--3--|
|--0--0--|
|--0--2--|
|--X--2--|
|--3--0--|

Distorted guitar part with screaming:
|---------------------------------|
|---------------------------------|
|--------------------------9\8\7--|
|--7--X-X-X-X--7--X-X-X-X--9\8\7--|
|--7--X-X-X-X--7--X-X-X-X--7\6\5--|
|--5--X-X-X-X--5--X-X-X-X---------|


Back