StatTrack
web space | website hosting | Web Hosting | Free Website Submission | shopping cart | php hosting
nin-Suck guitar and bass tab Suck
tuning: standard
tabbed by daria - daria6666@hotmail.com

Verse: Bass
|---------------|
|---------------|
|-----5-6-------|
|--0------0-3---|

Chorus: Bass:
|---------------------------------------------------------------
|---------------------------------------------------------------
|--7-7-7--5-5-5--8-8-8--5-5-5-------5--7-7-7--5-5-5-------------
|-----------------------------5\3-5-----------------5--3-3/6-3--

|--------------------------------------------------------------|
|--------------------------------------------------------------|
|--7-7-7--5-5-5--8-8-8--5-5-5-------5--7-7-7--5-5-5------------|
|-----------------------------5\3-5------------------5--3-3-3--|

Chorus: Guitar:
|-----------------------------------------------------------------
|-----------------------------------------------------------------
|--9-9-9--7-7-7--10-10-10--7-7-7-------7--9-9-9--7-7-7------------
|--9-9-9--7-7-7--10-10-10--7-7-7-7\5-7-7--9-9-9--7-7-7-7-5-5/8-5--
|--7-7-7--5-5-5---8--8--8--5-5-5-7\5-7-5--7-7-7--5-5-5-7-5-5/8-5--
|--------------------------------5\3-5-----------------5-3-3/6-3--

|----------------------------------------------------------------|
|----------------------------------------------------------------|
|--9-9-9--7-7-7--10-10-10--7-7-7-------7--9-9-9--7-7-7-----------|
|--9-9-9--7-7-7--10-10-10--7-7-7-7\5-7-7--9-9-9--7-7-7-7--5-5-5--|
|--7-7-7--5-5-5---8--8--8--5-5-5-7\5-7-5--7-7-7--5-5-5-7--5-5-5--|
|--------------------------------5\3-5-----------------5--3-3-3--|

Fill thing: bass:
"I am so dirty"
|------------------------------------|
|---------------2-------3------------|
|------------------------------------|
|--0-0-0-0-0-0----3-3-3---4-4-4-5-6--|

Bass outro: 4:13:
|----------------|--------------|
|----------------|--------------|
|----5-6----5-6--|----5-6-------|
|--0------0------|--0------0-3--|

"A thousand lips":
|------------------|
|------------------|
|------------------|
|--3b--3b--3b--3b--|



back